Song name
# A B C D E F G H I J K L M N O P Q R S T U V W X Y Z

Pearl Jam - Yellow Moon tab

-------------------------------------------------------------------------------
                             Yellow Moon - Pearl Jam
-------------------------------------------------------------------------------
Tabbed by: boyaguitarra
E-mail: boyaguitarra@gmail.com

Tunning: Capo +1

|-2-2--0--0--0-0-0-|-2-2--0--0--0-0-0-||-2-2--0--0--0-0-0-|-2-2--0--0--0-0-0-|-2-2--3--3--3--3-|-0--0--0-0-0-||
|-3-3--2--2--2-2-2-|-3-3--2--2--2-2-2-||-3-3--2--2--2-2-2-|-3-3--2--2--2-2-2-|-3-3--3--3--3--3-|-2--2--2-2-2-||
|-2-2--2--2--2-2-2-|-2-2--2--2--2-2-2-|*-2-2--2--2--2-2-2-|-2-2--2--2--2-2-2-|-2-2--0--0--0--0-|-2--2--2-2-2-*|
|-0-0--2--2--2-2-2-|-0-0--2--2--2-2-2-|*-0-0--2--2--2-2-2-|-0-0--2--2--2-2-2-|-0-0--0--0--0--0-|-2--2--2-2-2-*|
|------0--0--0-0-0-|------0--0--0-0-0-||------0--0--0-0-0-|------0--0--0-0-0-|------2--2--2--2-|-0--0--0-0-0-||
|------------------|------------------||------------------|------------------|------3--3--3--3-|-------------||

|-0--0--2--2-|-0--0--0-0-0-|-3--3--3-|-0--0--2--2-|-0-----------||-2-2--0--0--0-0-0-|-2-2--0--0--0-0-0-||
|-1--1--3--3-|-2--2--2-2-2-|-3--3--3-|-1--1--3--3-|-2-----------||-3-3--2--2--2-2-2-|-3-3--2--2--2-2-2-||
|-0--0--2--2-|-2--2--2-2-2-|-0--0--0-|-0--0--2--2-|-2-----------|*-2-2--2--2--2-2-2-|-2-2--2--2--2-2-2-*|
|-2--2--0--0-|-2--2--2-2-2-|-0--0--0-|-2--2--0--0-|-2-----------|*-0-0--2--2--2-2-2-|-0-0--2--2--2-2-2-*|
|-3--3-------|-0--0--0-0-0-|-2--2--2-|-3--3-------|-0-----------||------0--0--0-0-0-|------0--0--0-0-0-||
|------------|-------------|-3--3--3-|------------|-------------||------------------|------------------||

|-2-2--0--0--0-0-0-|-2-2--0--0--0-0-0-|-2-2--3--3--3--3-|-0--0--0-0-0-|-2-2--3--3--3--3-|-0--0--0-0-0-|
|-3-3--2--2--2-2-2-|-3-3--2--2--2-2-2-|-3-3--3--3--3--3-|-2--2--2-2-2-|-3-3--3--3--3--3-|-2--2--2-2-2-|
|-2-2--2--2--2-2-2-|-2-2--2--2--2-2-2-|-2-2--0--0--0--0-|-2--2--2-2-2-|-2-2--0--0--0--0-|-2--2--2-2-2-|
|-0-0--2--2--2-2-2-|-0-0--2--2--2-2-2-|-0-0--0--0--0--0-|-2--2--2-2-2-|-0-0--0--0--0--0-|-2--2--2-2-2-|
|------0--0--0-0-0-|------0--0--0-0-0-|------2--2--2--2-|-0--0--0-0-0-|------2--2--2--2-|-0--0--0-0-0-|
|------------------|------------------|------3--3--3--3-|-------------|------3--3--3--3-|-------------|

|-0--0--2--2-|-0--0--0-0-0-|-3--3--3-|-0--0--2----------|
|-1--1--3--3-|-2--2--2-2-2-|-3--3--3-|-1--1--3----------|
|-0--0--2--2-|-2--2--2-2-2-|-0--0--0-|-0--0--2----------|
|-2--2--0--0-|-2--2--2-2-2-|-0--0--0-|-2--2--0----------|
|-3--3-------|-0--0--0-0-0-|-2--2--2-|-3--3-------------|
|------------|-------------|-3--3--3-|------------------|
                                                 
||-0--2--3--5--|-0--2--3--5--0--0--0-0-0-||-3--3--3-3-|-0--0--0-0-0-|-3--3--3-3-|-0--0-0-0-0-|
||-0--2--3--5--|-0--2--3--5--2--2--2-2-2-||-3--3--3-3-|-2--2--2-2-2-|-3--3--3-3-|-2--2-2-2-2-|
|*-0--2--4--6--|-0--2--4--6--2--2--2-2-2-*|-0--0--0-0-|-2--2--2-2-2-|-0--0--0-0-|-2--2-2-2-2-|
|*-2--4--5--7--|-2--4--5--7--2--2--2-2-2-*|-0--0--0-0-|-2--2--2-2-2-|-0--0--0-0-|-2--2-2-2-2-|
||-2--4--5--7--|-2--4--5--7--0--0--0-0-0-||-2--2--2-2-|-0--0--0-0-0-|-2--2--2-2-|-0--0-0-0-0-|
||-0--2--3--5--|-0--2--3--5--------------||-3--3--3-3-|-------------|-3--3--3-3-|------------|

|-0--0--2--2-|-0--0--0-0-0-|-3--3--3-|-0--0--2--2-|-0--0--0-0-0-||-2-2--0--0--0-0-0-|-2-2--0--0--0-0-0-||
|-1--1--3--3-|-2--2--2-2-2-|-3--3--3-|-1--1--3--3-|-2--2--2-2-2-||-3-3--2--2--2-2-2-|-3-3--2--2--2-2-2-||
|-0--0--2--2-|-2--2--2-2-2-|-0--0--0-|-0--0--2--2-|-2--2--2-2-2-|*-2-2--2--2--2-2-2-|-2-2--2--2--2-2-2-*|
|-2--2--0--0-|-2--2--2-2-2-|-0--0--0-|-2--2--0--0-|-2--2--2-2-2-|*-0-0--2--2--2-2-2-|-0-0--2--2--2-2-2-*|
|-3--3-------|-0--0--0-0-0-|-2--2--2-|-3--3-------|-0--0--0-0-0-||------0--0--0-0-0-|------0--0--0-0-0-||
|------------|-------------|-3--3--3-|------------|-------------||------------------|------------------||

|-0--0--2--2-|-0--0--0-0-0-|-3--3--3-|-0--0--2--2-|-0--0--0-0-0-|-3--3--3-|-0--0--2-----|
|-1--1--3--3-|-2--2--2-2-2-|-3--3--3-|-1--1--3--3-|-2--2--2-2-2-|-3--3--3-|-1--1--3-----|
|-0--0--2--2-|-2--2--2-2-2-|-0--0--0-|-0--0--2--2-|-2--2--2-2-2-|-0--0--0-|-0--0--2-----|
|-2--2--0--0-|-2--2--2-2-2-|-0--0--0-|-2--2--0--0-|-2--2--2-2-2-|-0--0--0-|-2--2--0-----|
|-3--3-------|-0--0--0-0-0-|-2--2--2-|-3--3-------|-0--0--0-0-0-|-2--2--2-|-3--3--------|
|------------|-------------|-3--3--3-|------------|-------------|-3--3--3-|-------------|
Tap to rate this tab
# A B C D E F G H I J K L M N O P Q R S T U V W X Y Z