Song name
# A B C D E F G H I J K L M N O P Q R S T U V W X Y Z

Pearl Jam - Swallowed Whole tab

-------------------------------------------------------------------------------
                             Swallowed whole - pearl jam
-------------------------------------------------------------------------------
Tabbed by: boyaguitarra
E-mail: boyaguitarra@gmail.com

Tuning: standard

                                                                                                           x3
||------------------------------|------------------------------|----------------------|----------------------||
||-3-3--3-3--3-3--3-3--3-3--3-3-|-3-3--3-3--3-3--3-3--3-3--3-3-|-1-1-1--1--1--1--1--1-|-1-1-1--1--1--1--1--1-||
|*-2-2--0-0--2-2--0-0--2-2--0-0-|-2-2--0-0--2-2--0-0--2-2--0-0-|-0-0-0--2--0--2--0--2-|-0-0-0--2--0--2--0--2-*|
|*-0-0--0-0--0-0--0-0--0-0--0-0-|-0-0--0-0--0-0--0-0--0-0--0-0-|-2-2-2--3--2--3--2--3-|-2-2-2--3--2--3--2--3-*|
||------------------------------|------------------------------|-3-3-3-----3-----3----|-3-3-3-----3-----3----||
||------------------------------|------------------------------|----------------------|----------------------||

|-------------0-----3-----|-------------0-----3-----|-------------0-----3-----------|
|-1-----1-----0-----3-----|-1-----1-----0-----3-----|-1-----1-----0-----3-----------|
|-2-----0-----0-----0-----|-2-----0-----0-----0-----|-2-----0-----0-----0-----------|
|-2-----2-----2-----0-----|-2-----2-----2-----0-----|-2-----2-----2-----0-----------|
|-0-----3-----2-----2-----|-0-----3-----2-----2-----|-0-----3-----2-----2-----------|
|-------------0-----3-----|-------------0-----3-----|-------------0-----3-----------|

|-------------------------------|------------------------------|----------------------|-----------------------|
|--3-3--3-3--3-3--3-3--3-3--3-3-|-3-3--3-3--3-3--3-3--3-3--3-3-|-1-1-1--1--1--1--1--1-|-1-1-1--1--1--1--1--1--|
|--2-2--0-0--2-2--0-0--2-2--0-0-|-2-2--0-0--2-2--0-0--2-2--0-0-|-0-0-0--2--0--2--0--2-|-0-0-0--2--0--2--0--2--|
|--0-0--0-0--0-0--0-0--0-0--0-0-|-0-0--0-0--0-0--0-0--0-0--0-0-|-2-2-2--3--2--3--2--3-|-2-2-2--3--2--3--2--3--|
|-------------------------------|------------------------------|-3-3-3-----3-----3----|-3-3-3-----3-----3-----|
|-------------------------------|------------------------------|----------------------|-----------------------|

||------------------------------|------------------------------|----------------------|----------------------||
||------------------------------|------------------------------|-3-3-3--3--3--3--3--3-|-3-3-3--3--3--3--3--3-||
|*-2-2--2-2--2-2--2-2--2-2--2-2-|-2-2--2-2--2-2--2-2--2-2--2-2-|-0-0-0--0--0--0--0--0-|-0-0-0--0--0--0--0--0-*|
|*-2-2--2-2--2-2--2-2--2-2--2-2-|-2-2--2-2--2-2--2-2--2-2--2-2-|-0-0-0--2--0--2--0--2-|-0-0-0--2--0--2--0--2-*|
||-0-0--0-0--0-0--0-0--0-0--0-0-|-0-0--0-0--0-0--0-0--0-0--0-0-|-2-2-2--3--2--3--2--3-|-2-2-2--3--2--3--2--3-||
||------------------------------|------------------------------|-3-3-3-----3-----3----|-3-3-3-----3-----3----||

|-------------0-----3-----|-------------0-----3-----|-------------0-----3-----------|
|-1-----1-----0-----3-----|-1-----1-----0-----3-----|-1-----1-----0-----3-----------|
|-2-----0-----0-----0-----|-2-----0-----0-----0-----|-2-----0-----0-----0-----------|
|-2-----2-----2-----0-----|-2-----2-----2-----0-----|-2-----2-----2-----0-----------|
|-0-----3-----2-----2-----|-0-----3-----2-----2-----|-0-----3-----2-----2-----------|
|-------------0-----3-----|-------------0-----3-----|-------------0-----3-----------|

|---------------------------|---------------------------|------------------------|----------------------------|
|-1-----0-----3-----0-1--0--|-1-----0-----3-----0-1--0--|-3-----3-----3-----3----|-3--------------3-----3-----|
|-2-----2-----2-----2-2--2--|-2-----2-----2-----2-2--2--|-0-----2-----0-----2----|-0--------0-----0-----2-----|
|-2-----2-----2-----2-2--2--|-2-----2-----2-----2-2--2--|-2-----0-----2-----0----|-0--------2-----2-----0-----|
|-0-----0-----0-----0-0--0--|-0-----0-----0-----0-0--0--|-3-----------3----------|-2--2-----2-----3-----------|
|---------------------------|---------------------------|------------------------|-3-----3--0-----------------|

||------------------|------------------|------------------|------------------||
||----3-----3-----3-|----3-----3-----3-|-3--3--3--3--3--3-|-3--3--3--3--3--3-||
|*-2--2--2--2--2--2-|-2--2--2--2--2--2-|-0--0--0--0--0--0-|-0--0--0--0--0--0-*|
|*-2--0--2--0--2--0-|-2--0--2--0--2--0-|-0--2--0--2--0--2-|-0--2--0--2--0--2-*|
||-0-----0-----0----|-0-----0-----0----|-2--3--2--3--2--3-|-2--3--2--3--2--3-||
||------------------|------------------|-3-----3-----3----|-3-----3-----3----||

||------------------------------|------------------------------|----------------------|----------------------||
||------------------------------|------------------------------|-3-3-3--3--3--3--3--3-|-3-3-3--3--3--3--3--3-||
|*-2-2--2-2--2-2--2-2--2-2--2-2-|-2-2--2-2--2-2--2-2--2-2--2-2-|-0-0-0--0--0--0--0--0-|-0-0-0--0--0--0--0--0-*|
|*-2-2--2-2--2-2--2-2--2-2--2-2-|-2-2--2-2--2-2--2-2--2-2--2-2-|-0-0-0--2--0--2--0--2-|-0-0-0--2--0--2--0--2-*|
||-0-0--0-0--0-0--0-0--0-0--0-0-|-0-0--0-0--0-0--0-0--0-0--0-0-|-2-2-2--3--2--3--2--3-|-2-2-2--3--2--3--2--3-||
||------------------------------|------------------------------|-3-3-3-----3-----3----|-3-3-3-----3-----3----||

|-------------0-----3-----|-------------0-----3-----------|
|-1-----1-----0-----3-----|-1-----1-----0-----3-----------|
|-2-----0-----0-----0-----|-2-----0-----0-----0-----------|
|-2-----2-----2-----0-----|-2-----2-----2-----0-----------|
|-0-----3-----2-----2-----|-0-----3-----2-----2-----------|
|-------------0-----3-----|-------------0-----3-----------|
Tap to rate this tab
# A B C D E F G H I J K L M N O P Q R S T U V W X Y Z