Song name
# A B C D E F G H I J K L M N O P Q R S T U V W X Y Z

Pearl Jam - Sleeping By Myself tab

-------------------------------------------------------------------------------
                             Sleeping By Myself - Pearl Jam
-------------------------------------------------------------------------------
Tabbed by: boyaguitarra
E-mail: boyaguitarra@gmail.com

source: http://boyaguitarra.blogspot.com/2013/11/sleeping-by-myself-de-pearl-jam-stone.html

Tuning: Standard Capo +7 

|-0--0--0-0-|-0--0--0-0-|-0-0-------|-----------|-0--0--0-0-|-0--0--0-0-|-0-0-------|-----------|
|-1--1--1-1-|-1--1--1-1-|-0-0-------|-----------|-1--1--1-1-|-1--1--1-1-|-0-0-------|-----------|
|-0--0--0-0-|-2--2--2-2-|-0-0-------|-----------|-0--0--0-0-|-2--2--2-2-|-0-0-------|-----------|
|-2--2--2-2-|-2--2--2-2-|-2-2-------|-----------|-2--2--2-2-|-2--2--2-2-|-2-2-------|-----------|
|-3--3--3-3-|-0--0--0-0-|-2-2-------|-----------|-3--3--3-3-|-0--0--0-0-|-2-2-------|-----------|
|-----------|-----------|-0-0-------|-----------|-----------|-----------|-0-0-------|-----------|

|-0--0--0-0-|-0--0--0-0-|-0--0--0-0-|-0--0--0-0-|-0--0--0-0-|-0--0--0-0-|-0--0--0-0-|-0--0--0-0-|
|-1--1--1-1-|-1--1--1-1-|-0--0--0-0-|-0--0--0-0-|-1--1--1-1-|-1--1--1-1-|-0--0--0-0-|-0--0--0-0-|
|-0--0--0-0-|-2--2--2-2-|-0--0--0-0-|-0--0--0-0-|-0--0--0-0-|-2--2--2-2-|-0--0--0-0-|-0--0--0-0-|
|-2--2--2-2-|-2--2--2-2-|-2--2--2-2-|-2--2--2-2-|-2--2--2-2-|-2--2--2-2-|-2--2--2-2-|-2--2--2-2-|
|-3--3--3-3-|-0--0--0-0-|-2--2--2-2-|-2--2--2-2-|-3--3--3-3-|-0--0--0-0-|-2--2--2-2-|-2--2--2-2-|
|-----------|-----------|-0--0--0-0-|-0--0--0-0-|-----------|-----------|-0--0--0-0-|-0--0--0-0-|

|-1--1--1-1-|-1--1--1-1-|-1--1--1-1-|-1--1--1-1-|-0--0--0-0-|-0--0--0-0-|-0--0--0-0-|-0--0--0-0-|
|-1--1--1-1-|-1--1--1-1-|-0--0--0-0-|-0--0--0-0-|-3--3--3-3-|-3--3--3-3-|-3--3--3-3-|-2--2--2-2-|
|-2--2--2-2-|-2--2--2-2-|-0--0--0-0-|-0--0--0-0-|-3--3--3-3-|-3--3--3-3-|-2--2--2-2-|-2--2--2-2-|
|-3--3--3-3-|-3--3--3-3-|-0--0--0-0-|-0--0--0-0-|-0--0--0-0-|-0--0--0-0-|-2--2--2-2-|-2--2--2-2-|
|-3--3--3-3-|-3--3--3-3-|-2--2--2-2-|-2--2--2-2-|-----------|-----------|-0--0--0-0-|-0--0--0-0-|
|-1--1--1-1-|-1--1--1-1-|-3--3--3-3-|-3--3--3-3-|-----------|-----------|-----------|-----------|

|-1--1--1-1-|-1--1--1-1-|-1--1--1-1-|-1--1--1-1-|
|-1--1--1-1-|-1--1--1-1-|-0--0--0-0-|-0--0--0-0-|
|-2--2--2-2-|-2--2--2-2-|-0--0--0-0-|-0--0--0-0-|
|-3--3--3-3-|-3--3--3-3-|-0--0--0-0-|-0--0--0-0-|
|-3--3--3-3-|-3--3--3-3-|-2--2--2-2-|-2--2--2-2-|
|-1--1--1-1-|-1--1--1-1-|-3--3--3-3-|-3--3--3-3-|

|-0--0--0-0-|-0--0--0-0-|-0-0-------|-----------|-0--0--0-0-|-0--0--0-0-|-0-0-------|-----------|
|-1--1--1-1-|-1--1--1-1-|-0-0-------|-----------|-1--1--1-1-|-1--1--1-1-|-0-0-------|-----------|
|-0--0--0-0-|-2--2--2-2-|-0-0-------|-----------|-0--0--0-0-|-2--2--2-2-|-0-0-------|-----------|
|-2--2--2-2-|-2--2--2-2-|-2-2-------|-----------|-2--2--2-2-|-2--2--2-2-|-2-2-------|-----------|
|-3--3--3-3-|-0--0--0-0-|-2-2-------|-----------|-3--3--3-3-|-0--0--0-0-|-2-2-------|-----------|
|-----------|-----------|-0-0-------|-----------|-----------|-----------|-0-0-------|-----------|

|-0--0--0-0-|-0--0--0-0-|-0--0--0-0-|-0--0--0-0-|-0--0--0-0-|-0--0--0-0-|-0--0--0-0-|-0--0--0-0-|
|-1--1--1-1-|-1--1--1-1-|-0--0--0-0-|-0--0--0-0-|-1--1--1-1-|-1--1--1-1-|-0--0--0-0-|-0--0--0-0-|
|-0--0--0-0-|-2--2--2-2-|-0--0--0-0-|-0--0--0-0-|-0--0--0-0-|-2--2--2-2-|-0--0--0-0-|-0--0--0-0-|
|-2--2--2-2-|-2--2--2-2-|-2--2--2-2-|-2--2--2-2-|-2--2--2-2-|-2--2--2-2-|-2--2--2-2-|-2--2--2-2-|
|-3--3--3-3-|-0--0--0-0-|-2--2--2-2-|-2--2--2-2-|-3--3--3-3-|-0--0--0-0-|-2--2--2-2-|-2--2--2-2-|
|-----------|-----------|-0--0--0-0-|-0--0--0-0-|-----------|-----------|-0--0--0-0-|-0--0--0-0-|

|-1--1--1-1-|-1--1--1-1-|-1--1--1-1-|-1--1--1-1-|-0--0--0-0-|-0--0--0-0-|-0--0--0-0-|-0--0--0-0-|
|-1--1--1-1-|-1--1--1-1-|-0--0--0-0-|-0--0--0-0-|-3--3--3-3-|-3--3--3-3-|-3--3--3-3-|-2--2--2-2-|
|-2--2--2-2-|-2--2--2-2-|-0--0--0-0-|-0--0--0-0-|-3--3--3-3-|-3--3--3-3-|-2--2--2-2-|-2--2--2-2-|
|-3--3--3-3-|-3--3--3-3-|-0--0--0-0-|-0--0--0-0-|-0--0--0-0-|-0--0--0-0-|-2--2--2-2-|-2--2--2-2-|
|-3--3--3-3-|-3--3--3-3-|-2--2--2-2-|-2--2--2-2-|-----------|-----------|-0--0--0-0-|-0--0--0-0-|
|-1--1--1-1-|-1--1--1-1-|-3--3--3-3-|-3--3--3-3-|-----------|-----------|-----------|-----------|

|-1--1--1-1-|-1--1--1-1-|-1--1--1-1-|-1--1--1-1-|-0--0--0-0-|-0--0--0-0-|-0--0--0-0-|-0--0--0-0-|
|-1--1--1-1-|-1--1--1-1-|-0--0--0-0-|-0--0--0-0-|-1--1--1-1-|-1--1--1-1-|-1--1--1-1-|-1--1--1-1-|
|-2--2--2-2-|-2--2--2-2-|-0--0--0-0-|-0--0--0-0-|-0--0--0-0-|-0--0--0-0-|-0--0--0-0-|-0--0--0-0-|
|-3--3--3-3-|-3--3--3-3-|-0--0--0-0-|-0--0--0-0-|-2--2--2-2-|-2--2--2-2-|-2--2--2-2-|-2--2--2-2-|
|-3--3--3-3-|-3--3--3-3-|-2--2--2-2-|-2--2--2-2-|-3--3--3-3-|-3--3--3-3-|-3--3--3-3-|-3--3--3-3-|
|-1--1--1-1-|-1--1--1-1-|-3--3--3-3-|-3--3--3-3-|-----------|-----------|-----------|-----------|

|-0--0--0-0-|-0--0--0-0-|-0--0--0-0-|-0--0--0-0-|-0--0--0-0-|-0--0--0-0-|-1--1--1-1-|-1--1--1-1-|
|-1--1--1-1-|-1--1--1-1-|-1--1--1-1-|-1--1--1-1-|-0--0--0-0-|-0--0--0-0-|-1--1--1-1-|-1--1--1-1-|
|-0--0--0-0-|-0--0--0-0-|-0--0--0-0-|-0--0--0-0-|-1--1--1-1-|-1--1--1-1-|-2--2--2-2-|-2--2--2-2-|
|-2--2--2-2-|-2--2--2-2-|-2--2--2-2-|-2--2--2-2-|-2--2--2-2-|-2--2--2-2-|-3--3--3-3-|-3--3--3-3-|
|-3--3--3-3-|-3--3--3-3-|-3--3--3-3-|-3--3--3-3-|-2--2--2-2-|-2--2--2-2-|-3--3--3-3-|-3--3--3-3-|
|-----------|-----------|-----------|-----------|-0--0--0-0-|-0--0--0-0-|-1--1--1-1-|-1--1--1-1-|

|-1--1--1-1-|-1--1--1-1-|-2--2--2-2-|-2--2--2-2-|-1--1--1-1-|-1--1--1-1-|-1-1-------|-----------|
|-1--1--1-1-|-1--1--1-1-|-1--1--1-1-|-1--1--1-1-|-0--0--0-0-|-0--0--0-0-|-0-0-------|-----------|
|-2--2--2-2-|-2--2--2-2-|-2--2--2-2-|-2--2--2-2-|-0--0--0-0-|-0--0--0-0-|-0-0-------|-----------|
|-3--3--3-3-|-3--3--3-3-|-0--0--0-0-|-0--0--0-0-|-0--0--0-0-|-0--0--0-0-|-0-0-------|-----------|
|-3--3--3-3-|-3--3--3-3-|-----------|-----------|-2--2--2-2-|-2--2--2-2-|-2-2-------|-----------|
|-1--1--1-1-|-1--1--1-1-|-----------|-----------|-3--3--3-3-|-3--3--3-3-|-3-3-------|-----------|

|-0--0--0-0-|-0--0--0-0-|-1--1--1-1-|-3--3--1-1-|-0--0--0-0-|-0--0--0-0-|-1--1--1-1-|
|-1--1--1-1-|-1--1--1-1-|-1--1--1-1-|-1--1--1-1-|-1--1--1-1-|-1--1--1-1-|-1--1--1-1-|
|-0--0--0-0-|-0--0--0-0-|-2--2--2-2-|-2--2--2-2-|-0--0--0-0-|-0--0--0-0-|-2--2--2-2-|
|-2--2--2-2-|-2--2--2-2-|-3--3--3-3-|-3--3--3-3-|-2--2--2-2-|-2--2--2-2-|-3--3--3-3-|
|-3--3--3-3-|-0--0--0-0-|-3--3--3-3-|-----------|-3--3--3-3-|-0--0--0-0-|-3--3--3-3-|
|-----------|-----------|-1--1--1-1-|-----------|-----------|-----------|-1--1--1-1-|

|-1--1--1-1-|-3--3--3-3-|
|-3--3--3-3-|-3--3--3-3-|
|-2--2--2-2-|-0--0--0-0-|
|-3--3--3-3-|-0--0--0-0-|
|-----------|-2--2--2-2-|
|-----------|-3--3--3-3-|


|-1--1--1-1-|-1--1--1-1-|-2--2--2-2-|-2--2--2-2-|-1--1--1-1-|-1--1--1-1-|-1-1-------|-----------|
|-1--1--1-1-|-1--1--1-1-|-1--1--1-1-|-1--1--1-1-|-0--0--0-0-|-0--0--0-0-|-0-0-------|-----------|
|-2--2--2-2-|-2--2--2-2-|-2--2--2-2-|-2--2--2-2-|-0--0--0-0-|-0--0--0-0-|-0-0-------|-----------|
|-3--3--3-3-|-3--3--3-3-|-0--0--0-0-|-0--0--0-0-|-0--0--0-0-|-0--0--0-0-|-0-0-------|-----------|
|-3--3--3-3-|-3--3--3-3-|-----------|-----------|-2--2--2-2-|-2--2--2-2-|-2-2-------|-----------|
|-1--1--1-1-|-1--1--1-1-|-----------|-----------|-3--3--3-3-|-3--3--3-3-|-3-3-------|-----------|

|-0--0--0-0-|-0--0--0-0-|-0--0--0-0-|-0--0--0-0-|-0--0--0-0-|-0--0--0-0-|-0--0--0-0-|-0--0--0-0-|
|-1--1--1-1-|-1--1--1-1-|-0--0--0-0-|-0--0--0-0-|-1--1--1-1-|-1--1--1-1-|-0--0--0-0-|-0--0--0-0-|
|-0--0--0-0-|-2--2--2-2-|-0--0--0-0-|-0--0--0-0-|-0--0--0-0-|-2--2--2-2-|-0--0--0-0-|-0--0--0-0-|
|-2--2--2-2-|-2--2--2-2-|-2--2--2-2-|-2--2--2-2-|-2--2--2-2-|-2--2--2-2-|-2--2--2-2-|-2--2--2-2-|
|-3--3--3-3-|-0--0--0-0-|-2--2--2-2-|-2--2--2-2-|-3--3--3-3-|-0--0--0-0-|-2--2--2-2-|-2--2--2-2-|
|-----------|-----------|-0--0--0-0-|-0--0--0-0-|-----------|-----------|-0--0--0-0-|-0--0--0-0-|

|-1--1--1-1-|-1--1--1-1-|-1--1--1-1-|-1--1--1-1-|-0--0--0-0-|-0--0--0-0-|-0--0--0-0-|-0--0--0-0-|
|-1--1--1-1-|-1--1--1-1-|-0--0--0-0-|-0--0--0-0-|-3--3--3-3-|-3--3--3-3-|-3--3--3-3-|-2--2--2-2-|
|-2--2--2-2-|-2--2--2-2-|-0--0--0-0-|-0--0--0-0-|-3--3--3-3-|-3--3--3-3-|-2--2--2-2-|-2--2--2-2-|
|-3--3--3-3-|-3--3--3-3-|-0--0--0-0-|-0--0--0-0-|-0--0--0-0-|-0--0--0-0-|-2--2--2-2-|-2--2--2-2-|
|-3--3--3-3-|-3--3--3-3-|-2--2--2-2-|-2--2--2-2-|-----------|-----------|-0--0--0-0-|-0--0--0-0-|
|-1--1--1-1-|-1--1--1-1-|-3--3--3-3-|-3--3--3-3-|-----------|-----------|-----------|-----------|

|-1--1--1-1-|-1--1--1-1-|-1--1--1-1-|-1--1--1-1-|-0--0--0-0-|-0--0--0-0-|-1--1--1-1-|
|-1--1--1-1-|-1--1--1-1-|-0--0--0-0-|-0--0--0-0-|-1--1--1-1-|-1--1--1-1-|-1--1--1-1-|
|-2--2--2-2-|-2--2--2-2-|-0--0--0-0-|-0--0--0-0-|-0--0--0-0-|-0--0--0-0-|-2--2--2-2-|
|-3--3--3-3-|-3--3--3-3-|-0--0--0-0-|-0--0--0-0-|-2--2--2-2-|-2--2--2-2-|-3--3--3-3-|
|-3--3--3-3-|-3--3--3-3-|-2--2--2-2-|-2--2--2-2-|-3--3--3-3-|-0--0--0-0-|-3--3--3-3-|
|-1--1--1-1-|-1--1--1-1-|-3--3--3-3-|-3--3--3-3-|-----------|-----------|-1--1--1-1-|

|-1--1--1-1-|-3--3--3-3-|
|-3--3--3-3-|-3--3--3-3-|
|-2--2--2-2-|-0--0--0-0-|
|-3--3--3-3-|-0--0--0-0-|
|-----------|-2--2--2-2-|
|-----------|-3--3--3-3-|


|-1--1--1-1-|-1--1--1-1-|-1--1--1-1-|-1--1--1-1-|-0--0--0-0-|-0--0--0-0-|-0-0-0-0-0-0-0-0-|
|-1--1--1-1-|-1--1--1-1-|-0--0--0-0-|-0--0--0-0-|-3--3--3-3-|-3--3--3-3-|-3-3-3-3-2-2-2-2-|
|-2--2--2-2-|-2--2--2-2-|-0--0--0-0-|-0--0--0-0-|-3--3--3-3-|-3--3--3-3-|-2-2-2-2-2-2-2-2-|
|-3--3--3-3-|-3--3--3-3-|-0--0--0-0-|-0--0--0-0-|-0--0--0-0-|-0--0--0-0-|-2-2-2-2-2-2-2-2-|
|-3--3--3-3-|-3--3--3-3-|-2--2--2-2-|-2--2--2-2-|-----------|-----------|-0-0-0-0-0-0-0-0-|
|-1--1--1-1-|-1--1--1-1-|-3--3--3-3-|-3--3--3-3-|-----------|-----------|-----------------|

|-1--1--1-1-|-1--1--1-1-|-1--1--1-1-|-1--1--1-1-|-1--1--1-1-|-1--1--1-1-|-1--1--1-1-|-1--1--1-1-|
|-1--1--1-1-|-1--1--1-1-|-0--0--0-0-|-0--0--0-0-|-1--1--1-1-|-1--1--1-1-|-0--0--0-0-|-0--0--0-0-|
|-2--2--2-2-|-2--2--2-2-|-0--0--0-0-|-0--0--0-0-|-2--2--2-2-|-2--2--2-2-|-0--0--0-0-|-0--0--0-0-|
|-3--3--3-3-|-3--3--3-3-|-0--0--0-0-|-0--0--0-0-|-3--3--3-3-|-3--3--3-3-|-0--0--0-0-|-0--0--0-0-|
|-3--3--3-3-|-3--3--3-3-|-2--2--2-2-|-2--2--2-2-|-3--3--3-3-|-3--3--3-3-|-2--2--2-2-|-2--2--2-2-|
|-1--1--1-1-|-1--1--1-1-|-3--3--3-3-|-3--3--3-3-|-1--1--1-1-|-1--1--1-1-|-3--3--3-3-|-3--3--3-3-|

|-1--1--1-1-|-1--1--1-1-|-1--1--1-1-|-1--1--1-1-|-0-----------|
|-1--1--1-1-|-1--1--1-1-|-0--0--0-0-|-0--0--0-0-|-1-----------|
|-2--2--2-2-|-2--2--2-2-|-0--0--0-0-|-0--0--0-0-|-0-----------|
|-3--3--3-3-|-3--3--3-3-|-0--0--0-0-|-0--0--0-0-|-2-----------|
|-3--3--3-3-|-3--3--3-3-|-2--2--2-2-|-2--2--2-2-|-3-----------|
|-1--1--1-1-|-1--1--1-1-|-3--3--3-3-|-3--3--3-3-|-------------|
Tap to rate this tab
# A B C D E F G H I J K L M N O P Q R S T U V W X Y Z