Song name
# A B C D E F G H I J K L M N O P Q R S T U V W X Y Z

Pearl Jam - Future Days tab

-------------------------------------------------------------------------------
                             Future Days - Pearl Jam
-------------------------------------------------------------------------------
Tabbed by: boyaguitarra
E-mail: boyaguitarra@gmail.com

Tuning: Standard Capo +1


|-0---1p0----------|-1----------1----------|----0----------|
|-1-------3-1------|-1----1---1----1-1-1-0-|-1-----1-1-----|
|-0------------0h2-|-2----0h2------2-2-2-0-|-0-----0-0-0-0-|
|-2----------------|-3-------------3-3-3-0-|-2-----2-2-0h2-|
|-3----------------|-----------------------|-3-------------|
|------------------|-----------------------|---------------|
                             
|-0---1p0----------|-1----------1----------|----0--3-3--0-|
|-1-------3-1------|-1----1---1----1-1-1-0-|-1--1--1-1--1-|
|-0------------0h2-|-2----0h2------2-2-2-0-|-0--0--0-0--0-|
|-2----------------|-3-------------3-3-3-0-|-2--2--2-2--2-|
|-3----------------|-----------------------|-3----------3-|
|------------------|-----------------------|--------------|

|-0--0-0--0-0--0-0-|-1--1-1--1-1--1-1--1-1--1-1-|----3-3--3-0-|
|-1--1-1--1-1--1-1-|-1--1-1--1-1--1-1--1-1--1-1-|-1--1-1--1-1-|
|-0--0-0--0-0--0-0-|-2--2-2--2-2--0h2--2-2--2-2-|-0--0-0--0-0-|
|-2--2-2--2-2--2-2-|-3--3-3--3-3--3-3--3-3--3-3-|-2--2-2--2-2-|
|-3--3-3--3-3--3-3-|-3--3-3--3-3--3-3--3-3--3-3-|-3--3-3--3-3-|
|------------------|----------------------------|-------------|
                             
|-0--0-0--0-0--0-0-|-1--1-1--1-1--1-1--1-1--1-1-|----0-0--0-0-|
|-1--1-1--1-1--1-1-|-1--1-1--1-1--1-1--1-1--1-1-|-1--1-1--1-1-|
|-0--0-0--0-0--0-0-|-2--2-2--2-2--0h2--2-2--2-2-|-0--0-0--0-0-|
|-2--2-2--2-2--2-2-|-3--3-3--3-3--3-3--3-3--3-3-|-2--2-2--2-2-|
|-3--3-3--3-3--3-3-|-3--3-3--3-3--3-3--3-3--3-3-|-3--3-3--3-3-|
|------------------|----------------------------|-------------|

|-0--0-0-|-0--0-0--0-0--0-0--0-|-1--1-1--1-1-|----3-3--3-0-|
|-1--1-1-|-1--1-1--1-1--1-1--1-|-1--1-1--1-1-|-1--1-1--1-1-|
|-0--0-0-|-0--0-0--0-0--0-0--0-|-2--2-2--2-2-|-0--0-0--0-0-|
|-2--2-2-|-0--0-0--0-0--0-0--2-|-3--3-3--3-3-|-2--2-2--2-2-|
|-3--3-3-|-2--2-2--2-2--2-2--3-|-3--3-3--3-3-|-3--3-3--3-3-|
|--------|---------------------|-------------|-------------|

|-0--0-0-|-0--0-0--0--0-0--0-0-|-1--1-1--1-1-|----0-0--0-0-|
|-1--1-1-|-1--1-1--1--1-1--1-1-|-1--1-1--1-1-|-1--1-1--1-1-|
|-0--0-0-|-0--0-0--2--2-2--2-2-|-2--2-2--2-2-|-0--0-0--0-0-|
|-2--2-2-|-0--0-0--2--2-2--2-2-|-3--3-3--3-3-|-2--2-2--2-2-|
|-3--3-3-|-2--2-2--0--0-0--0-0-|-3--3-3--3-3-|-3--3-3--3-3-|
|--------|---------------------|-------------|-------------|

|-0---1p0----------|-1--------1----------|----0----------|
|-1-------3-1------|-1--1---1----1-1-1-0-|-1-----1-1-----|
|-0------------0h2-|-2--0h2------2-2-2-0-|-0-----0-0-0-0-|
|-2----------------|-3-----------3-3-3-0-|-2-----2-2-0h2-|
|-3----------------|---------------------|-3-------------|
|------------------|---------------------|---------------|
                           
|-0---1p0----------|-1--------------------|-------3-3--0-|
|-1-------3-1------|-1--1---1-1---1-1-1-0-|-1-----1-1--1-|
|-0------------0h2-|-2--0h2---0h2-2-2-2-0-|-0-----0-0--0-|
|-2----------------|-3------------3-3-3-0-|-2-----2-2--2-|
|-3----------------|----------------------|-3----------3-|
|------------------|----------------------|--------------|

|-0---1p0----------|-1--------1----------|----0----------|
|-1-------3-1------|-1--1---1----1-1-1-0-|-1-----1-1-----|
|-0------------0h2-|-2--0h2------2-2-2-0-|-0-----0-0-0-0-|
|-2----------------|-3-----------3-3-3-0-|-2-----2-2-0h2-|
|-3----------------|---------------------|-3-------------|
|------------------|---------------------|---------------|
                           
|-0---1p0----------|-1--------------------|-------3-3--0-|
|-1-------3-1------|-1--1---1-1---1-1-1-0-|-1-----1-1--1-|
|-0------------0h2-|-2--0h2---0h2-2-2-2-0-|-0-----0-0--0-|
|-2----------------|-3------------3-3-3-0-|-2-----2-2--2-|
|-3----------------|----------------------|-3----------3-|
|------------------|----------------------|--------------|

|-0--0-0--0-0--0-0-|-1--1-1--1-1--1-1--1-1--1-1-|----3-3--3-0-|
|-1--1-1--1-1--1-1-|-1--1-1--1-1--1-1--1-1--1-1-|-1--1-1--1-1-|
|-0--0-0--0-0--0-0-|-2--2-2--2-2--0h2--2-2--2-2-|-0--0-0--0-0-|
|-2--2-2--2-2--2-2-|-3--3-3--3-3--3-3--3-3--3-3-|-2--2-2--2-2-|
|-3--3-3--3-3--3-3-|-3--3-3--3-3--3-3--3-3--3-3-|-3--3-3--3-3-|
|------------------|----------------------------|-------------|
                             
|-0--0-0--0-0--0-0-|-1--1-1--1-1--1-1--1-1--1-1-|----0-0--0-0-|
|-1--1-1--1-1--1-1-|-1--1-1--1-1--1-1--1-1--1-1-|-1--1-1--1-1-|
|-0--0-0--0-0--0-0-|-2--2-2--2-2--0h2--2-2--2-2-|-0--0-0--0-0-|
|-2--2-2--2-2--2-2-|-3--3-3--3-3--3-3--3-3--3-3-|-2--2-2--2-2-|
|-3--3-3--3-3--3-3-|-3--3-3--3-3--3-3--3-3--3-3-|-3--3-3--3-3-|
|------------------|----------------------------|-------------|

|-0--0-0-|-0--0-0--0-0--0-0--0-|-1--1-1--1-1-|----3-3--3-0-|
|-1--1-1-|-1--1-1--1-1--1-1--1-|-1--1-1--1-1-|-1--1-1--1-1-|
|-0--0-0-|-0--0-0--0-0--0-0--0-|-2--2-2--2-2-|-0--0-0--0-0-|
|-2--2-2-|-0--0-0--0-0--0-0--2-|-3--3-3--3-3-|-2--2-2--2-2-|
|-3--3-3-|-2--2-2--2-2--2-2--3-|-3--3-3--3-3-|-3--3-3--3-3-|
|--------|---------------------|-------------|-------------|

|-0--0-0-|-0--0-0--0--0-0--0-0-|-1--1-1--1-1-|----0-0--0-0-|-3--3-3--3-3-|
|-1--1-1-|-1--1-1--1--1-1--1-1-|-1--1-1--1-1-|-1--1-1--1-1-|-1--1-1--1-1-|
|-0--0-0-|-0--0-0--2--2-2--2-2-|-2--2-2--2-2-|-0--0-0--0-0-|-0--0-0--0-0-|
|-2--2-2-|-0--0-0--2--2-2--2-2-|-3--3-3--3-3-|-2--2-2--2-2-|-2--2-2--2-2-|
|-3--3-3-|-2--2-2--0--0-0--0-0-|-3--3-3--3-3-|-3--3-3--3-3-|-3--3-3--3-3-|
|--------|---------------------|-------------|-------------|-------------|

|-3--3-3--3-3-3-|-0--0-0--0-0-0-|-3--3-3--3-3-3-|-0--0-1-0--0-0-|
|-3--3-3--3-3-3-|-1--1-1--1-1-1-|-3--3-3--3-3-3-|-1--1-1-1--1-1-|
|-0--0-0--0-0-0-|-2--2-2--2-2-2-|-0--0-0--0-0-0-|-0--0-2-0--0-0-|
|-0--0-0--0-0-0-|-2--2-2--2-2-2-|-0--0-0--0-0-0-|-2--2-3-2--2-2-|
|-2--2-2--2-2-2-|-0--0-0--0-0-0-|-2--2-2--2-2-2-|-3--3-3-3--3-3-|
|-3--3-3--3-3-3-|---------------|-3--3-3--3-3-3-|---------------|

|-3--3-3--3-3-3-|-0--0-0--0-0-0-|-1--1-1--1-1-1-|-3--3-3--3-3-3-|-1------|
|-3--3-3--3-3-3-|-1--1-1--1-1-1-|-1--1-1--1-1-1-|-3--3-3--3-3-3-|-1------|
|-0--0-0--0-0-0-|-2--2-2--2-2-2-|-2--2-2--2-2-2-|-0--0-0--0-0-0-|-2------|
|-0--0-0--0-0-0-|-2--2-2--2-2-2-|-3--3-3--3-3-3-|-0--0-0--0-0-0-|-3------|
|-2--2-2--2-2-2-|-0--0-0--0-0-0-|-3--3-3--3-3-3-|-2--2-2--2-2-2-|-3------|
|-3--3-3--3-3-3-|---------------|-1--1-1--1-1-1-|-3--3-3--3-3-3-|-1------|

|-0---1p0----------|-1--------1----------|----0----------|
|-1-------3-1------|-1--1---1----1-1-1-0-|-1-----1-1-----|
|-0------------0h2-|-2--0h2------2-2-2-0-|-0-----0-0-0-0-|
|-2----------------|-3-----------3-3-3-0-|-2-----2-2-0h2-|
|-3----------------|---------------------|-3-------------|
|------------------|---------------------|---------------|
                           
|-0---1p0----------|-1--------------------|-------3-3--0-|
|-1-------3-1------|-1--1---1-1---1-1-1-0-|-1-----1-1--1-|
|-0------------0h2-|-2--0h2---0h2-2-2-2-0-|-0-----0-0--0-|
|-2----------------|-3------------3-3-3-0-|-2-----2-2--2-|
|-3----------------|----------------------|-3----------3-|
|------------------|----------------------|--------------|

|-0--0-0--0-0--0-0-|-1--1-1--1-1--1-1--1-1--1-1-|----3-3--3-0-|
|-1--1-1--1-1--1-1-|-1--1-1--1-1--1-1--1-1--1-1-|-1--1-1--1-1-|
|-0--0-0--0-0--0-0-|-2--2-2--2-2--0h2--2-2--2-2-|-0--0-0--0-0-|
|-2--2-2--2-2--2-2-|-3--3-3--3-3--3-3--3-3--3-3-|-2--2-2--2-2-|
|-3--3-3--3-3--3-3-|-3--3-3--3-3--3-3--3-3--3-3-|-3--3-3--3-3-|
|------------------|----------------------------|-------------|
                             
|-0--0-0--0-0--0-0-|-1--1-1--1-1--1-1--1-1--1-1-|----0-0--0-0-|
|-1--1-1--1-1--1-1-|-1--1-1--1-1--1-1--1-1--1-1-|-1--1-1--1-1-|
|-0--0-0--0-0--0-0-|-2--2-2--2-2--0h2--2-2--2-2-|-0--0-0--0-0-|
|-2--2-2--2-2--2-2-|-3--3-3--3-3--3-3--3-3--3-3-|-2--2-2--2-2-|
|-3--3-3--3-3--3-3-|-3--3-3--3-3--3-3--3-3--3-3-|-3--3-3--3-3-|
|------------------|----------------------------|-------------|

|-0--0-0-|-0--0-0--0-0--0-0--0-|-1--1-1--1-1-|----3-3--3-0-|
|-1--1-1-|-1--1-1--1-1--1-1--1-|-1--1-1--1-1-|-1--1-1--1-1-|
|-0--0-0-|-0--0-0--0-0--0-0--0-|-2--2-2--2-2-|-0--0-0--0-0-|
|-2--2-2-|-0--0-0--0-0--0-0--2-|-3--3-3--3-3-|-2--2-2--2-2-|
|-3--3-3-|-2--2-2--2-2--2-2--3-|-3--3-3--3-3-|-3--3-3--3-3-|
|--------|---------------------|-------------|-------------|

|-0--0-0-|-0--0-0--0--0-0--0-0-|-1--1-1--1-1-|----0-0--0-0-|
|-1--1-1-|-1--1-1--1--1-1--1-1-|-1--1-1--1-1-|-1--1-1--1-1-|
|-0--0-0-|-0--0-0--2--2-2--2-2-|-2--2-2--2-2-|-0--0-0--0-0-|
|-2--2-2-|-0--0-0--2--2-2--2-2-|-3--3-3--3-3-|-2--2-2--2-2-|
|-3--3-3-|-2--2-2--0--0-0--0-0-|-3--3-3--3-3-|-3--3-3--3-3-|
|--------|---------------------|-------------|-------------|

|-1--1-1--1-1-|----0-0--0-0-|-1-----------|-------------------|
|-1--1-1--1-1-|-1--1-1--1-1-|-1-----------|-1-----------------|
|-2--2-2--2-2-|-0--0-0--0-0-|-2-----------|-0-------0-0-0-0-0-|
|-3--3-3--3-3-|-2--2-2--2-2-|-3-----------|-2-------0-0-0-0h2-|
|-3--3-3--3-3-|-3--3-3--3-3-|-3-----------|-3-----------------|
|-------------|-------------|-------------|-------------------|
Tap to rate this tab
 
# A B C D E F G H I J K L M N O P Q R S T U V W X Y Z