Song name
# A B C D E F G H I J K L M N O P Q R S T U V W X Y Z

Pearl Jam - Sleeping By Myself tab

This is the solo part of Sleeping by Myself by Pearl Jam

Standard tuning

e|-----------------------------------------------------|
B|--12----------12-----------13-----------/15--13-12---|
G|-----12----12----12---12------12----12------------14-|
D|--------12----------12-----------14------------------|
A|-----------------------------------------------------|
E|-----------------------------------------------------|

e|------------------------------------------------------------------||
B|--12-----------/13--12--------/13--12---------------13--------15--||
G|-----12----12-----------14-12----------14-12----------------------||
D|--------12-------------------------------------10/14-----12/16----||
A|------------------------------------------------------------------||
E|------------------------------------------------------------------||
Tap to rate this tab
# A B C D E F G H I J K L M N O P Q R S T U V W X Y Z