Song name
# A B C D E F G H I J K L M N O P Q R S T U V W X Y Z

Pearl Jam - Around The Bend tab

album version

-|--------------------------|----0-------------------------2-----|------------|
-|-7--7--7--7-7--5--2--5--3-|-7----7--7-7--5--2--5--3------------|------------|
-|-6----------6--4--0--4--2-|-6---------6--4--0--4--2--------2-0-|------------|
-|-7----------7--5--2--5--0-|-7---------7--5--2--5--0------------|------------|
-|--------------------------|------------------------------------|------------|
-|--------------------------|------------------------------------|------------|
 G1, Intro, Verse

-|-----------------------0-0h2---3-2-0----|-----------------------3-2-0-|-----|
-|-7----7--5--2--5--3------3-----------/7-|-7----7--5--2--5--3----------|-----|
-|-6----6--4--0--4--2---------------------|-6----6--4--0--4--2----------|-----|
-|-7----7--5--2--5--0---------------------|-7----7--5--2--5--0----------|-----|
-|----------------------------------------|-----------------------------|-----|
-|----------------------------------------|-----------------------------|-----|


-|-------------------------0h2---3-2-0-|---------------------0-------0---|----|
-|-7----7--5--2--5--3--3---3-----------|-7----7--5--2--5--3----3--3----3-|----|
-|-6----6--4--0--4--2------------------|-6----6--4--0--4--2--------------|----|
-|-7----7--5--2--5--0----0-------------|-7----7--5--2--5--0--------------|----|
-|-------------------------------------|---------------------------------|----|
-|-------------------------------------|---------------------------------|----|


-|---------------------|------------|-----------------------------------------|
-|-7----7--5--2--5--3--|------------|-----------------------------------------|
-|-6----6--4--0--4--2--|--0---------|-----------------------------------------|
-|-7----7--5--2--5--0--|--0---2--3--|-----------------------------------------|
-|---------------------|------2--1--|-----------------------------------------|
-|---------------------|------------|-----------------------------------------|
                        Chorus

-|-----0----------------------0-0h2-----2h3p2-0---|---------------------------|
-|--7----7--7-7--5--2--5--3-----3---3-----------3-|---------------------------|
-|--6---------6--4--0--4--2-----------2-----------|---------------------------|
-|--7---------7--5--2--5--0-----------------------|---------------------------|
-|------------------------------------------------|---------------------------|
-|------------------------------------------------|---------------------------|


-|----0---------------------0-2--3-2-0-|---------------------0----3-2-0-|-----|
-|-7----7--7-7--5--2--5--3-------------|-7---7--5--2---3---3----3-------|-----|
-|-6---------6--4--0--4--2-------------|-6---6--4--0---2----------------|-----|
-|-7---------7--5--2--5--0-------------|-7---7--5--2---0----------------|-----|
-|-------------------------------------|--------------------------------|-----|
-|-------------------------------------|--------------------------------|-----|


-|--------------------------2-3-2-0-|--------------------0------3-3-2-0-|-----|
-|-7--7-7-7--5--2--5--3--3----------|-7---7--5--2--5--3----3--3---------|-----|
-|-6------6--4--0--4--2-------------|-6---6--4--0--4--2-----------------|-----|
-|-7------7--5--2--5--0-------------|-7---7--5--2--5--0-----------------|-----|
-|----------------------------------|-----------------------------------|-----|
-|----------------------------------|-----------------------------------|-----|


-|------------------------|---------------|-----------------------------------|
-|-7---7--5--2--5--3--3-3-|---3-3---------|-----------------------------------|
-|-6---6--4--0--4--2------|-0-------------|-----------------------------------|
-|-7---7--5--2--5--0------|-0-----0-2--3--|-----------------------------------|
-|------------------------|---------2--1--|-----------------------------------|
-|------------------------|---------------|-----------------------------------|
                           Chorus

-|------------------0--0-0h2-----2h3p2-0----|-0-----------------2--2---2-2-2-|
-|-7--7-7--5--2--5--3--------3-----------/7-|---7-7-7--5--2--5--3----3-3-3-3-|
-|-6----6--4--0--4--2----------2------------|-----6-6--4--0--4--2------2-----|
-|-7----7--5--2--5--0-----------------------|-------7--5--2--5--0------------|
-|------------------------------------------|--------------------------------|
-|------------------------------------------|--------------------------------|
 With G2

-|----0---------------------0-----------------|-------------------------------|
-|-7--7--7-7-7--5--2--5--3----3----------3----|-------------------------------|
-|-6--6------6--4--0--4--2-------0-0h2------2-|-------------------------------|
-|-7--7------7--5--2--5--0-------------0------|-------------------------------|
-|--------------------------------------------|-------------------------------|
-|--------------------------------------------|-------------------------------|


-|-------0-----------------0--0----0-|----------------------------------------|
-|-/7--7----7-7-5-2-2-3-5--3----3--3-|----------------------------------------|
-|-/6--6----6-6-4-0-0-0-4--2---------|----------------------------------------|
-|-/7--7----7-7-5-2-2-2-5--0---------|----------------------------------------|
-|-----------------------------------|----------------------------------------|
-|-----------------------------------|----------------------------------------|


-|---------------------------|-10b12---10b12-10b12r10----|-------------------|
-|-10b12r10---10b12r10---8-7-|------------------------10-|-10b12-10--8-7-5---|
-|---------------------------|---------------------------|-------------------|
-|---------------------------|---------------------------|-------------------|
-|---------------------------|---------------------------|-------------------|
-|---------------------------|---------------------------|-------------------|
 G2

-|--------------------0-0h2-----3-2-0---|-------------------|----------------|
-|-7---7--5--2--5--3--3-3---3-----------|-7---7--5--2--5--3-|----------------|
-|-6---6--4--0--4--2----------2-------2-|-6---6--4--0--4--2-|----------------|
-|-7---7--5--2--5--0------------------0-|-7---7--5--2--5--0-|-----------3----|
-|--------------------------------------|-------------------|-----0-2---1----|
-|--------------------------------------|-------------------|-3--------------|
 G1               (G2 enter 3rd time) 3x                     Chorus

-|---------------------|-------|---5-----3-----2--|---2--|--------------------|
-|-7-------------------|-7-----|-7-----5-----3----|------|--------------------|
-|---------------------|---7---|------------------|------|--------------------|
-|---------------------|-------|------------------|------|--------------------|
-|---------------------|-------|------------------|------|--------------------|
-|---------------------|-------|------------------|------|--------------------|
  G2 (pickup flicking)

-|-------------------------0-0h2-----3-2-0-|-0---------------2--5--5-5-5-----|
-|-7---7--5--2--5--3--3------3---3---------|---7-7--5--2--5--3--7--7-7-7-----|
-|-6---6--4--0--4--2----2----------2-------|-----6--4--0--4--2-----7-7-7-----|
-|-7---7--5--2--5--0-----------------------|-----7--5--2--5--0---------------|
-|-----------------------------------------|---------------------------------|
-|-----------------------------------------|---------------------------------|
 With Fill 1

-|------------------------0h2------|----------------------------|-------------|
-|-7---7--5--2--5--3--3--------3---|-7---7--5--2--5--3----------|-------------|
-|-6---6--4--0--4--2----2--------2-|-6---6--4--0--4--2----------|-------------|
-|-7---7--5--2--5--0---------------|-7---7--5--2--5--0----------|-------------|
-|---------------------------------|----------------------------|-------------|
-|---------------------------------|----------------------------|-------------|
                                                     With Fill 2

-|-------------|-----------|----------------------14-12--|--------------------|
-|-------------|-------10--|-10h12-10----10h12-----------|--------------------|
-|-------------|-10b11-----|-11-------11-----------------|--------------------|
-|----------3--|-----------|-----------------------------|--------------------|
-|-----0-2--1--|-----------|-----------------------------|--------------------|
-|-3-----------|-----------|-----------------------------|--------------------|
 Chorus    End   Fill 1      Fill 2
Tap to rate this tab
# A B C D E F G H I J K L M N O P Q R S T U V W X Y Z