Song name
# A B C D E F G H I J K L M N O P Q R S T U V W X Y Z

Pearl Jam - Black tab

-------------------------------------------------------------------------------
                             BLACK - Pearl Jam
-------------------------------------------------------------------------------
Tabbed by: Levi
E-mail: @hansenlevi0112@gmail.com

Tuning: Standard

  Intro:
e|------------10--10-10-10--10-10-10----------------10--10-10-10-10-10--10-10|
B|-9--9-9-9-9-9---9--9--9---9--9--9---9--9-9--9-9---9---9--9--9--9--9---9--9-|
G|-9--9-9-9-9-x---x--x--x---x--x--x---9--9-9--9-9---x---x--x--x--x--x---x--x-|
D|-x--x-x-x-x-7---7--7--7---7--7--7---x--x-x--x-x-0-7---7--7--7--7--7---7--7-|
A|-7--7-7-7-7-----------------------0-7--7-7--7-7----------------------------|
E|---------------------------------------------------------------------------|

e|-----------------------10--10-10-10-10-------------------------------------|
B|-----9--9-9-9-9-9--9-9-9---9--9--9--9---9----9-9---------------------------|
G|-----9--9-9-9-9-9--9-9-x---x--x--x--x---9----9-9---------------------------|
D|-----x--x-x-x-x-x--x-x-7---7--7--7--7---x----x-x---------------------------|
A|-0-2-7--7-7-7-7-7--7-7----------------0-7----7-7---------------------------|
E|---------------------------------------------------------------------------|

 Verse 1:
  GT I:
e|---------5-5--------------5-5-5------------------------------12------------|
B|---------5-5------9-------5-5-5-------9------7h9---------12--12------------|
G|-------------6-4--9--------------6-4--9------7-----------------------------|
D|---------------------------------------------------------------------------|
A|----0-----------------0-------------------0--------------------------------|
E|-0-----------------------------------------------0-------------------------|

e|--------------------12-12-9------------------------------------------------|
B|--------------------12-12-9-9---9--9--9--9---9--9h10-----------------------|
G|----------4h5---------------11--11-11-11-11--9--9h10-----------------------|
D|----------------------------11--11-11-11-11--------------------------------|
A|----0--------------------------------------------------------------0-------|
E|-0---------------0-------------------------------------------0-------------|

e|-12--12-10-9-8-8-8-8-12-12-10-9-8-8---|
B|-12--12-10-9-8-8-8-8-12-12-10-9-8-8---|
G|--------------------------------------|
D|--------------------------------------|
A|--------------------------------------|
E|--------------------------------------|

GT II:
e|---------------------------------------------------------------------------|    \
B|---------------------------------------------------------------------------|     \
G|-----2-------2-------------------------------------------------------------|       \
D|-2---2---2---2-------------------------------------------------------------|        \ 4x
A|-2---0---2---0-------------------------------------------------------------|        /
E|-0-------0-----------------------------------------------------------------|      /

   Pre-Chorus (both guitars):
e|-0--0--0-0-0-0-0--0-0-0--0-0-0-0-0-0---------------------------------------|     \
B|-1--1--1-1-1-1-1--1-1-1--1-1-1-1-1-1---------------------------------------|      \
G|-0--0--0-0-0-0-0--0-0-0--0-0-0-0-0-0---------------------------------------|       \
D|-2--2--2-2-2-2-2--2-2-2--2-2-2-2-2-2-2--2-2-2-2-2-2-2-2-2-2-2-2-2-2-2-2--2-|        2x
A|-3--3--3-3-3-3-3--3-3-3--3-3-3-3-3-3-2--2-2-2-2-2-2-2-2-2-2-2-2-2-2-2-2--2-|      /
E|-------------------------------------0--0-0-0-0-0-0-0-0-0-0-0-0-0-0-0-0--0-|     /

   Chorus
e|---------------------------------------------------------------------------|    \     
B|---------------------------------------------------------------------------|     \
G|-7--7-7--7-7-7-7-5--5-5--5-5-5-5-------------------------------------------|      \
D|-7--7-7--7-7-7-7-5--5-5--5-5-5-5-2--2-2--2-2-2-2---------------------------|        2x
A|-5--5-5--5-5-5-5-3--3-3--3-3-3-3-2--2-2--2-2-2-2---------------------------|      /
E|---------------------------------0--0-0--0-0-0-0---------------------------|     /

 Verse 2 (GT II plays same part but only 2 times):
GT I:

e|-------12h14-------12-12-------------------------12-10-9-8-8-8-12-12-10-9--|    
B|-------12h14-------12-12-------------------------12-10-9-8-8-8-12-12-10-9--|
G|--------------------------15--13-11----------------------------------------|
D|---------------------------------------------------------------------------|
A|----0------------0-----------------------0---------------------------------|
E|-0------------0-----------------------0-------0----------------------------|

e|-8-8---|
B|-8-8---|
G|-------|
D|-------|
A|-------|
E|-------|

Play Pre-Chorus

Play Chorus

  "All the love gone bad":
e|---------------------------------------------------------------------------|     \
B|---------------------------------------------------------------------------|      \
G|--7--7-7--7-7-7-7-5--5-5--5-5-5-5------------------------------------------|       \
D|--7--7-7--7-7-7-7-5--5-5--5-5-5-5------------------------------------------|        2x
A|--5--5-5--5-5-5-5-3--3-3--3-3-3-3------------------------------------------|      /
E|---------------------------------------------------------------------------|     /

Return To Chorus riff and play it through the whole song from here on

Outro riff (GT I + II):

e|-7-8-10-8--7-8-7---|
B|-------------------|
G|-------------------|
D|-------------------|
A|-------------------|
E|-------------------|

Solo (after 10 times through outro riff, GT I plays this):

e|-14b-14b-14b-14b-14b-14b-14b-14b-14b-14b-14b-14b-14b-14b-13b-13b-13b-13b---|
B|-14b-14b-14b-14b-14b-14b-14b-14b-14b-14b-14b-14b-14b-14b-13b-13b-13b-13b---|
G|---------------------------------------------------------------------------|
D|---------------------------------------------------------------------------|
A|---------------------------------------------------------------------------|
E|---------------------------------------------------------------------------|

e|-13b-13b-13b-13b-12b-12b-12b-12b-11b-11b-11b-11b-10b-10-10b-10-10b-10-10b--|
B|-13b-13b-13b-13b-12b-12b-12b-12b-11b-11b-11b-11b-10b-10-10b-10-10b-10-10b--|
G|---------------------------------------------------------------------------|
D|---------------------------------------------------------------------------|
A|---------------------------------------------------------------------------|
E|---------------------------------------------------------------------------|

e|-10b-10-10b-10-10b-10-10b-10-10b-10b-10b-10b-10b-11b-11b-11b-11b-12-12-12--|
B|-10b-10-10b-10-10b-10-10b-10-10b-10b-10b-10b-10b-11b-11b-11b-11b-12-12-12--|
G|---------------------------------------------------------------------------|
D|---------------------------------------------------------------------------|
A|---------------------------------------------------------------------------|
E|---------------------------------------------------------------------------|

e|-12-12b-12b-12b-12b-12b-12b-12b-12b-12b-12b-12b-12b-12b-12b-12b-12b-12b----|
B|-12-12b-12b-12b-12b-12b-12b-12b-12b-12b-12b-12b-12b-12b-12b-12b-12b-12b----|
G|---------------------------------------------------------------------------|
D|---------------------------------------------------------------------------|
A|---------------------------------------------------------------------------|
E|---------------------------------------------------------------------------|

e|-12b-12b-12b-12b-12b-12b-12b-12b-12b-12b-12b-12b-12b-12b-12b-12b-12b-12b---|
B|-12b-12b-12b-12b-12b-12b-12b-12b-12b-12b-12b-12b-12b-12b-12b-12b-12b-12b---|
G|---------------------------------------------------------------------------|
D|---------------------------------------------------------------------------|
A|---------------------------------------------------------------------------|
E|---------------------------------------------------------------------------|

e|-12b-12b-12b-12b-12b-12b-12b-12b-12b-12b-12b-12b-12b-12b-12b-12b-12b-12b---|
B|-12b-12b-12b-12b-12b-12b-12b-12b-12b-12b-12b-12b-12b-12b-12b-12b-12b-12b---|
G|---------------------------------------------------------------------------|
D|---------------------------------------------------------------------------|
A|---------------------------------------------------------------------------|
E|---------------------------------------------------------------------------|

e|-12b-12b-12b-12b-|-----16-14-14-16-14-14-14-14-16-14-14-16-14-14-14-14------|  \
B|-12b-12b-12b-12b-|-----14-14-14-14-14-14-14-14-14-14-14-14-14-14-14-14------|   \
G|-----------------|----------------------------------------------------------|    \
D|-----------------|----------------------------------------------------------|     4x   
A|-----------------|----------------------------------------------------------|   /
E|-----------------|----------------------------------------------------------|  /

e|--14---17---14----17---14---17-|  \
B|-------------------------------|   \
G|-------------------------------|    \
D|-------------------------------|     repeat till fade out
A|-------------------------------|    /
E|-------------------------------|   /


************************************

| /   slide up
| \   slide down
| h   hammer-on
| p   pull-off
| ~   vibrato
| +   harmonic
| x   Mute note
| b   Bend
| pb  Pre-bend
| br  Bend release
| pbr Pre-bend release
| brb Bend release bend

************************************
Tap to rate this tab
# A B C D E F G H I J K L M N O P Q R S T U V W X Y Z