Song name
# A B C D E F G H I J K L M N O P Q R S T U V W X Y Z

Pearl Jam - Brain Of J tab

Solo
|------------------------------------------------------------------|
|------------------------------------------------------------------|
|--9b11vvvvvvv-9b11-9b11-11-11-11-11-11-11-11-9b11r9-7-9b11r9-7----|
|---------------------------------------------------------------9--|
|------------------------------------------------------------------|
|------------------------------------------------------------------|

|---------------|--------------------------------------|
|---------------|--7br7---7br7---7b--9b10r9------------|
|--7-9-7---7----|--7br7---7br7---7b--9b10r9-7---7------|
|--------9---9--|-------9------9--------------9---9-7--|
|---------------|--------------------------------------|
|---------------|--------------------------------------|

|-12b13r12p10--10-----------------|--12-12-12-12-12-12-12-12-12\---|
|------------12---12-10-12vvvvv\--|--12-12-12-12-12-12-12-12-12\\--|
|---------------------------------|-----------------------------\--|
|---------------------------------|--------------------------------|
|---------------------------------|--------------------------------|
|---------------------------------|--------------------------------|

|-------------------------------------|--7------------------10b13vvr10----|
|--9br9---9br9---9br9-----------------|----10p7---7--------------------13-|
|--9br9-7-9br9-7-9br9-7--7-9-7-9-7-9--|---------9---9b11r9----------------|
|-------------------------------------|--------------------9--------------|
|-------------------------------------|-----------------------------------|
|-------------------------------------|-----------------------------------|


|--------------------------|--13-13-13-13-13-13-13-13-13-13-x-13-x-13----|
|--13-13-13-13-13-13-13-13-|--13-13-13-13-13-13-13-13-13-13-x-13-x-13----|
|--------------------------|---------------------------------------------|
|--------------------------|---------------------------------------------|
|--------------------------|---------------------------------------------|
|--------------------------|---------------------------------------------|
Tap to rate this tab
 
# A B C D E F G H I J K L M N O P Q R S T U V W X Y Z