Song name
# A B C D E F G H I J K L M N O P Q R S T U V W X Y Z

Pearl Jam - Breakerfall tab

#----------------------------------PLEASE NOTE--------------------------------#
#This file is the author's own work and represents their interpretation of the#
#song. You may only use this file for private study, scholarship, or research.#
#-----------------------------------------------------------------------------#
#-- File created with Instab - http://www.pconline.com/~smcarey/instab.html --#
#-----------------------------------------------------------------------------#

Author/Artist: Pearl Jam
Title: Breakerfall
Album: Binaural
Transcribed by: Rick S.
Email: ricksloukji@hotmail.com

Great opener for Binaural. Easy + fun song to play along with.

------------------------------------------------------------------------------|
------------------------------------------------------------------------------|
-1--444--666----111----444--666-----------------------------------------------|
-2--555--777----222----555--777-----------------------------------------------|
-2--555--777----222----555--777-----------------------------------------------|
-0--333--555----000----333--555-----------------------------------------------|
 Intro

------------------------------------------------------------------------------|
------------------------------------------------------------------------------|
------------------------------------------------------------------------------|
------0-2-0-2-0---------------------------------------------------------------|
---2------------2-0-----------------------------------------------------------|
--0-0--------------32---------------------------------------------------------|
 Verse

------------------------------------------------------------------------------|
------------------------------------------------------------------------------|
--1-1111--22/66---------------------------------------------------------------|
--2-2222--44/77---------------------------------------------------------------|
--2-2222--44/77---------------------------------------------------------------|
-00-0000-222/55---------------------------------------------------------------|
 Chorus

--0--0--0\-0--0--0/-0--0--0/-0--0--0/-0--0--0--0--0--0--0--0--0--0--0---------|
-12-12-12\10-10-10/12-12-12/15-15-15/17-17-17-17-17-17-17-17-17-17-17---------|
--v--v------------------------------------------------------------------------|
------------------------------------------------------------------------------|
------------------------------------------------------------------------------|
------------------------------------------------------------------------------|
 Bridge


Structure :

Intro
Verse
Chorus
Verse
Chorus
Bridge
Chorus
Tap to rate this tab
 
# A B C D E F G H I J K L M N O P Q R S T U V W X Y Z