Song name
# A B C D E F G H I J K L M N O P Q R S T U V W X Y Z

Pearl Jam - Get Right tab

Artist: pearl jam
Title: get right
Album: riot act
Transcribed by: rafael salazar

------------------------------------------------------------------------------|
------------------------------------------------------------------------------|
-7--x--x-x-x------4-4--6-6----------------------------------------------------|
-9--x--x-x-x------5-5--7-7--9-------------------------------------------------|
-9--x--x-x-x------5-5--7-7--9-------------------------------------------------|
-7--7*-7*7*7*-----3-3--5-5--7-------------------------------------------------|
                              repeat B w/ harmonics for verse

------------------------------------------------------------------------------|
------------------------------------------------------------------------------|
---------9--7------------9--7-----------9-9-7-9b-7----------------------------|
--9-9-9--9--7--5-5--7----9--7--5--7----------------9--------------------------|
--9-9-9--7--5--5-5--7----7--5--5--7-----7-7-5-7b-5----------------------------|
--7-7-7--------3-3--5----------3--5----------------7--------------------------|
                        | repeat  |

---------------------------7--------------------------------------------------|
--12vvvv-7h10p7---7h10p7-----7h10p7---------------------7h10p7----------------|
----------------9--------9----------9-7h9p7---7h9p7------------9p7---7h9p7-7--|
--------------------------------------------9----------------------9----------|
------------------------------------------------------------------------------|
------------------------------------------------------------------------------|
                                                 etc..

------------------------------10-12-12b------10--12----------7-10-------------|
-------------------3------/12----------------10--12----------7-10-------------|
-7--4p2---2v---2-4---4-/-----------------------11------------7-9--------------|
--------4----4-----------------------------------------------7-9--------------|
------------------------------------------------------------------------------|
------------------------------------------------------------------------------|
                                          |use this pattern for solo|

chords under solo:   B (same as verse)  B D C# C B  then C# C C# C B B E D to chorus
Tap to rate this tab
# A B C D E F G H I J K L M N O P Q R S T U V W X Y Z