Guitaretab - guitar tabs
Song name
# A B C D E F G H I J K L M N O P Q R S T U V W X Y Z

Pearl Jam - Marker In The Sand tab

Song - Marker in the Sand
Artist - Pearl Jam
Album - Pearl Jam
x = mute note

All verses before the solo are played with the same riff as the Intro which is tabbed below.
E|---------------|
B|---------------|
G|-5-5-5---------|
D|-5-5-5-5-8-5-8-|
A|-3-3-3-5-8-5-8-|
E|-------3-6-3-6-|
[ Tab from: http://www.guitaretab.com/p/pearl-jam/75457.html ]
Chorus (X2)
E|----------------------------------------|
B|---------------4-6-3-3-3-3-----8-8-8-6-4|
G|-7-7-7-5-3-3-3-------------5-3----------|
D|----------------------------------------|
A|----------------------------------------|
E|----------------------------------------|

The verse right after the solo is played differently it goes
E|---------------|
B|---------------|
G|-5-5-5---------|
D|-5-5-5-x-x-x-x-|
A|-3-3-3-x-x-x-x-|
E|-------x-x-x-x-|
Rock on.
Related for Marker In The Sand tab
Advertisement will be closed in 10 seconds