Song name
# A B C D E F G H I J K L M N O P Q R S T U V W X Y Z

Pearl Jam - Gone Acoustic tab

-------------------------------------------------------------------------------
			     Gone (Acoustic) - Pearl Jam
-------------------------------------------------------------------------------
Tabbed by: Rasmus Bødker
Email: rasmus_bodker@hotmail.com

Tuning: Standard

I saw Pearl Jam play GONE in AOL's music sessions and wanted to play it that way,
but i've been unable to find any tabs of it here on UG - so i decieded to do it 
myself. Constructive critism is allowed, but anyone who think he/she can do it
better shut up, and tab it yourself.

Anyways.
I haven't tabbed all of the strumming, so listen to the song for it.


Intro/Verse riff
e|-----------------------------|
B|-----------------------------|
G|--------4-4------------------|
D|--2-2-2-2-2-2-0---4-4-2-2----| x3
A|--3-3-3-3-3-3-0-2-2-2-2-2----|
E|----------------0------------|


e|------------0-0-0-0----------|
B|------------5-5-5-5----------|
G|------4-4-4-4-4-4-4----------|
D|------0-0-0-2-2-2-2----------|
A|--2-2-2-2-2-0-0-0-0----------|
E|--3-3-3-3-3------------------|


Prechorus:
e|--0-0-0----------------------|
B|--3-3-3-2-2-2----------------|
G|--4-4-4-4-4-4----------------|
D|--3-3-3-2-2-2----------------| x3
A|--0-0-0-0-0-0----------------|
E|-----------------------------|

e|-----------------------------|
B|-----------------------------|
G|--4-4-4-4--------------------|
D|--0-0-2-2--------------------|
A|--0-0-0-0--------------------|
E|--3-3-3-3--------------------|


Chorus/Outro
e|--5-5-5-5-5-5-5--------------|
B|--5-5-5-5-5-5-5--------------|
G|--7-7-7-6-7-7-6--------------| x3
D|--7-7-7-7-7-7-7--------------|
A|-----------------------------|
E|-----------------------------|

e|--8--8--8--10--10--10--------|
B|--8--8--8--10--10--10--------|
G|--9--9--9--11--11--11--------|
D|-10-10-10--12--12--12--------|
A|-----------------------------|
E|-----------------------------|

And there you havwe it

I prefer to end the song with an A-chord this way:

e|-------5---|
B|------5----|
G|-----6-----|
D|----7------|
A|---7-------|
E|--5--------|

But i Think Eddie plays it like

e|-------5---|
B|------5----|
G|-----6-----|
D|----7------|
A|-----------|
E|-----------|


Go Pearl Jam, great new album - buy it!

| /  slide up
| \  slide down
| h  hammer-on
| p  pull-off
| ~  vibrato
| +  harmonic
| x  Mute note
===============================================================================
Tap to rate this tab
# A B C D E F G H I J K L M N O P Q R S T U V W X Y Z