Song name
# A B C D E F G H I J K L M N O P Q R S T U V W X Y Z

Pearl Jam - Dont Gimme No Lip tab

Can't believe noone's tabbed this out yet!


Reaaaally easy song, great for beginners.

Intro/Chorus:

E|------------------------------------------------------------------------|
B|------------------------------------------------------------------------|
G|------------------------------------------------------------------------|
D|5---5--5--5--5---5---5--5--5--5---5---5--5--5--10--10--10--7--7--7--5---|
A|5---5--5--5--5---5---5--5--5--5---5---5--5--5--10--10--10--7--7--7--5---|
E|3---3--3--0--3---3---3--3--0--3---3---3--3--0--8---8---8---5--5--5--3---|
  Don't gimme no lip     " "        Don't gimme no.....

Verse:
E|-----------------------------------------------------------|
B|-----------------------------------------------------------|
G|-----------------------------------------------------------|
D|5----------------3------------------2----------------------|
A|5----------------3------------------2----------------------|
E|3----------------1------------------0----------------------|
Don't gimme no lip,   I'm just not havin' it

Bridge:

E|----------------------------------------------|
B|12(8x)-10(8x)---------------------------------|
G|12(8x)-10(8x)-12(8x)-12s13s12-10-12-10-12-----|
D|--------------12(8x)-12s13s12-10-12-10-12-----|
A|----------------------------------------------|
E|----------------------------------------------|

Any changes/revisions contact at bobzahn@gmail.com
Tap to rate this tab
# A B C D E F G H I J K L M N O P Q R S T U V W X Y Z