Song name
# A B C D E F G H I J K L M N O P Q R S T U V W X Y Z

Pedersen Herb - Wait A Minute tab

Help us improve GuitareTab! Take a short survey!
tabbed by FELIX SCHUESSLER (felix.schuessler@gmx.de)
 
 
Standard tuning 
 
Intro/verse/chorus (add mutes in verse/chorus)  
E |---------------------------------------------| 
B |---------------------------------------------| 
G |-11------------------------------------------| 
D |-11--10---9----10---9----7----4--------------| 
A |-9---10---9----10---9----7----4--------------| 
E |-----8----7----8----7----5----2--------------| 
 
Pre-Chorus 
	x3 
E |---------------------------------------------| 
B |---------------------------------------------| 
G |-9-----11------------9-----------------------| 
D |-9--9--11------9--7--9-----------------------| 
A |-7--9--9-------9--7--7-----------------------| 
E |----7----------7--5--------------------------| 
 
Bridge (x12) 
E |---------------------------------------------| 
B |---------------------------------------------| 
G |-6-6-6-6-6--------4--------------------------| 
D |-6-6-6-6-6--5--4--4--------------------------| 
A |-4-4-4-4-4--5--4--2--------------------------| 
E |------------3--2-----------------------------| 
 
I listened to the song a few times and I think you should play the song like this!!
Related for Wait A Minute tab