Song name
# A B C D E F G H I J K L M N O P Q R S T U V W X Y Z

Pedestrianz - Broken Strings tab

          Pedestrianz - Broken Strings

          hello this is a new band. this is their fist song
          here it is:            palm mute is X         (distortion whole song)
          
          *slide pick down guitar*       Verse 1+2+3.....         verse 2x
          |-----------------------------------------------------------------------|
          |-----------------------------------------------------------------------|
          |-----------------------------------------------------------------------|
          |-----------------------------------------------------------------------|
          |---9-x8x---7-x8x---5-x8x---3-x8x---3--5--7-----------------------------|
          |---7-x8x---5-x8x---3-x8x---1-x8x---1--3--5-----------------------------|
          
          |-----------------------------------------------------------------------|
          |-----------------------------------------------------------------------
          |-----------------------------------------------------------------------|
          |-----------------------------------------------------------------------|
          |---9---5---7---3--3--5--7--9---2x--------------------------------------|
          |---7---3---5---1--1--3--5--7---2x--------------------------------------|
           
          
          
                THERE! thats it. it is wicked easy to play. 
                   *rock on DUDES!*
Tap to rate this tab
# A B C D E F G H I J K L M N O P Q R S T U V W X Y Z