Song name
# A B C D E F G H I J K L M N O P Q R S T U V W X Y Z

Pedicab - Bukas tab

Title      :	Bukas
Artist     :	Pedicab

For any Comments and Suggestions:

Text Me:     09082360710/09156169501
Email Me:    jhenson_21@rocketmail.com
Friendster:  boybassista@yahoo.com

Tuning: Standard

Verse Riff:

e--------------------------------------------------|
b--------------------------------------------------|
g--------------------------------------------------|
D-----88--77--1010----88--77--100----88-77-1010----|
A-55---------------55-------------55---------------|
E--------------------------------------------------|

(Do Verse Riff)
Bukas sigurado magbabago na ako
Babawiin ko nalang sa araw na ito
Bukas tignan magiiba
Babawiin ko nalang sa araw na ito

Chord Pattern: G- xxxx33

G-----
Rock en roll,issue na sapol
Ikaw nagbago lumilindol
G---
Nilagay sa taon, lahat tayo nagburol


Verse Riff:

e--------------------------------------------------|
b--------------------------------------------------|
g--------------------------------------------------|
D-----88--77--1010----88--77--100----88-77-1010----|
A-55---------------55-------------55---------------|
E--------------------------------------------------|

(Do Verse Riff)
Bukas sigurado magbabago na ako
Babawiin ko nalang sa araw na ito
Bukas tignan magiiba
Babawiin ko nalang sa araw na ito

Chord Pattern: G- xxxx33

G----
Ang mga bagong sa issue pa sapol
Ikaw nagkaapon, nauulol

G----
Nilagay mo sa isang taon, Lahat tayo ang nagburol

Riff:
e--------------------------------------------------|
b--------------------------------------------------|
g--------------------------------------------------|
D-----88--77--1010----88--77--100----88-77-1010----|
A-55---------------55-------------55---------------|
E--------------------------------------------------|

Sabado sarado, sabado sarado, Sabado sarado na


www.ultimate-guitar.com

'=================='
/   RoCk En RoLL   \
'------------------'
Tap to rate this tab
# A B C D E F G H I J K L M N O P Q R S T U V W X Y Z