Pedicab - Simulan Mo Na tab

In my perspective, this is how J. Sonic rocks this song. :)
Pedicab Rocks!


Simulan Mo Na by Pedicab



Verse

E-----------------|
b--5--5-----------|
g--5--5-----------|
d--5--5-----------|
a--3--3-----------|
e-----------------|


Pre Chorus

E--7--7-10-7--10-7\5-7-----7--7-10-7--12-10\5-7--------|
b--7--7-10-7--10-7\5-7-----7--7-10-7--12-10\5-7--------|
g------------------------------------------------------|
d------------------------------------------------------|
a------------------------------------------------------|
e------------------------------------------------------|


Chorus
(Puro Down Strum)

E-------------|
b---5-----3---|
g---5---------|
d---5---------|
a---3---------|
e-------------|

2nd Verse
E-----------------|
b--5--5-----------|
g--5--5-----------|
d--5--5-----------|
a--3--3-----------|
e-----------------|


Pre Chorus

E--7--7-10-7--10-7\5-7-----7--7-10-7--12-10\5-7--------|
b--7--7-10-7--10-7\5-7-----7--7-10-7--12-10\5-7--------|
g------------------------------------------------------|
d------------------------------------------------------|
a------------------------------------------------------|
e------------------------------------------------------|


Chorus
(Puro Down Strum)

E-------------|
b---5-----3---|
g---5---------|
d---5---------|
a---3---------|
e-------------|


(Eto na ang panahon....)
E-----------------------------------|
b-----------------------------------|
g-----------------------------------|
d---7/9\7--7\4--4----4\2--2\0--0----|     2 times
a-----------------------------------|
e-----------------------------------|


Last Chorus

E------------[[----------------]]
b---12-x-12--[[--1010-12-x-12--]]
g---11-x-11--[[--9 9 -11-x-11--]]
d---9 -x-9 --[[--7 7 -9 -x-9 --]]
a------------[[----------------]]
e------------[[----------------]]
               Repeat the bracketed part 14 times
Then...
E----------------------------|
b---1010-12-151515151515-----|
g---9 9 -11-141414141414-----|
d---7 7 -9 -121212121212-----|
a----------------------------|
e----------------------------|

Enjoy!
Tap to rate this tab
 
# A B C D E F G H I J K L M N O P Q R S T U V W X Y Z