Song name
# A B C D E F G H I J K L M N O P Q R S T U V W X Y Z

Pedicab - Dito Tayo Sa Dilim tab

-------------------------------------------------------------------------------
			     Dito Tayo Sa Dilim - Pedicab
-------------------------------------------------------------------------------
Tabbed by: josh_G

Email: joshuastig@yahoo.com

Tuning: Standard tuning E A D G B e

This is completely correct, i've seen it live many times. Pa rate na lng, tnx!

Intro/Verse	"dito tayo sa dilim, kapit sa..."

e|---------------------------------------------------------------------------|
B|-5-5-5-55------------------------------------------------------------------|
G|-----------------(x8)------------------------------------------------------|
D|---------------------------------------------------------------------------|
A|---------------------------------------------------------------------------|
E|---------------------------------------------------------------------------|

Pre Chorus	"pa pa para, pa pa pa ra ra ra..."

e|---------------------------------------------------------------------------|
B|---------------------------------------------------------------------------|
G|-9-9--99--7-7--7777--------------------------------------------------------|
D|-9-9--99--7-7--7777--------------------------------------------------------|
A|-7-7--77--5-5--5555-----(x4)-----------------------------------------------|
E|---------------------------------------------------------------------------|

Chorus	"Deretchahan na, maaasahan ka ba..."

e|---------------------------------------------------------------------------|
B|---------------------------------------------------------------------------|
G|---------------------------------------------------------------------------|
D|---------------------------------------------------------------------------|
A|-7-7-7-7-7-7-/-10-12-12-12-12-12-12-12------(x4)---------------------------|
E|---------------------------------------------------------------------------|

	verse
	chorus		(repeat)
	pre chorus
	
Inrerlude (instrumental)

e|---------------------------------------------------------------------------|
B|---------------------------------------12-12-12-1212-----------------------|
G|-9999999999999999----------------------------------------------------------|
D|-9999999999999999----------------------------------------------------------|
A|-7777777777777777---(so on, then...)---------------------------------------|
E|---------------------------------------------------------------------------|

(repeat chorus)
(then pre choruse)

End on:

e|---------------------------------------------------------------------------|
B|---------------------------------------------------------------------------|
G|---------------------------------------------------------------------------|
D|---------------------------------------------------------------------------|
A|-77-7\\\\0-----------------------------------------------------------------|
E|---------------------------------------------------------------------------|

Pakinggan nyo na lang, to get it right. just e-mail me at joshuastig@yahoo.com

for any comments.

| /  slide up
| \  slide down
| h  hammer-on
| p  pull-off
| ~  vibrato
| +  harmonic
| x  Mute note
===============================================================================
Tap to rate this tab
# A B C D E F G H I J K L M N O P Q R S T U V W X Y Z