Song name
# A B C D E F G H I J K L M N O P Q R S T U V W X Y Z

Pedra Leticia - Eu No Toco Raul chords

Highlighted       Show chord diagrams
E|------------------------------------7/8-7----------|
B|--7h8-10--8--7h8-10--8--7h8-10--8---------7---8-7--|
G|--------------------------------7-----------9------|
D|---------------------------------------------------|
A|---------------------------------------------------|
E|---------------------------------------------------|



E|--------------------------------10-8-7-----------------------------------------|
B|------7h8-8------7h8-8---------8-------10-8--7--7h8-8-7------------------------|
G|--7-9--------7-9---------7h9--9-------------------------9-7-7------------------|
D|--------------------------------------------------------------7h9-7-9-5---7h9-5|
A|-------------------------------------------------------------------------------|
E|-------------------------------------------------------------------------------|


    G                        C9
Em todo bar que a gente vai tocar
                  Am                  D
Tem sempre lá no canto um cara com a barba por fazer
     G                     C9
E a camiseta com a cara do Chê,
               Am                     D
Um buraquinho nela onde havia a estrelinha do PT
   G                  C9
A namorada dele você vê,
           Am                D
Batinha indiana, coturno, bermuda saint-tropez
 G                           C9
Pede um papelzinho pra escrever
            Am                D
Tira uma caneta de dentro da bolsa de crochê
Bm            Am         Bm           Am
  Rabisca um guardanapo com a bic azul
Bm            Am            D7
  Escreve um bilhetinho assim: Toca Raul!

(refrão)
G           C9
Eu não toco Raul
Vocês me desculpem..
   Am                    D
Eu acredito quando você diz que ele é legal
G          C9
Eu não toco Raul
Vocês não me culpem
   Am                      D
A banda preza pelo estilo Sidney Magal

( G C9 Am D ) (2x)

(refrão 1)
E|-----------------------------------------------------------------
B|----------------------------7h8-7--------------------------------
G|-------7h9-7-----7h9-7--7h9-------9-7-7--------------------------
D|---7h9--------7h9-----------------------7h9-7-9-5-5-5-5h7-7/9----
A|-----------------------------------------------------------------
E|-----------------------------------------------------------------

G                         C9
E aquele alquimista nada a ver
               Am                       D
Viagens de um diário de um mago, mais falso que um Menudo
G                  C9                   Am                    D
Essa idolatria por Raul, parece aquela velha opinião formada sobre tudo
Bm        Am         Bm            Am
  Não adianta implorar pro seu guru
Bm        Am         D7
  Não adianta esbravejar: Toca Raul!

(refrão)
G           C9
Eu não toco Raul
Vocês me desculpem..
   Am                    D
Eu acredito quando você diz que ele é legal
G          C9
Eu não toco Raul
Vocês não me culpem
   Am                      D
A banda preza pelo estilo Sidney Magal

(refrão 2)

E|------------------------------------------------------------------------|
B|---------8-8--8-8-8-8-8-8-8-7------------8-8--8-8-8-8-8-8-8-7-----------|
G|----7-7h9----------------------9-7--7-7h9----------------------9-7-5-4--|
D|------------------------------------------------------------------------|
A|------------------------------------------------------------------------|
E|------------------------------------------------------------------------|


( G C9 Am D ) (2x)

Bm               Am
  Mas quando eu virar um astro,
Bm                             Am
  Com a minha guitarra e uma prancha do lado,
Bm                        Am                       D7
  Eu quero ouvir você gritar num bar: Toca Pedra Letícia!!

(refrão)
G           C9
Eu não toco Raul
Vocês me desculpem..
   Am                    D
Eu acredito quando você diz que ele é legal
G          C9
Eu não toco Raul
Vocês não me culpem
   Am                      D
A banda preza pelo estilo Sidney Magal

( G C9 Am D )

G          C9
Eu não toco Raul
Vocês me desculpem.. (Am D)
G          C9
Eu não toco Raul
Vocês não me culpem (Am D)

( G )
Tap to rate this tab
 
# A B C D E F G H I J K L M N O P Q R S T U V W X Y Z