Song name
# A B C D E F G H I J K L M N O P Q R S T U V W X Y Z

Pedro Abrunhosa - Vomos Em Contramo chords

Highlighted       Show chord diagrams
Intro (capo #3): C Am 3x 

e|-------------0---3---------------0---3----------------0---3-------------0---3-------|
B|------1--3----------------1--3---------1-------1--3---------------1--3---------1----|
G|---0-------------------0--------------------0------------------0--------------------|
D|------------------------------------------------------------------------------------|
A|------------------------------------------------------------------------------------|
E|------------------------------------------------------------------------------------|
 
C
Leva-me ao fim da montanha
Am
Dá-me do vinho da Vida
C
Estende o Céu, faz a cama
Am
Onde me escondo da ferida
   F
E agora…
           C            
Somos mais fortes que o chão.


Mostra-me a foz do teu Rio
Vem à Nascente do meu
Afasta a dor e o perigo
Porque a distância doeu.
E agora…
Voámos em Contramão.


Pré-refrão:
Dm                       Bb
E há-de haver outro lugar
                     F
E palavras p'ra dizer
                           C
Quando a Terra abraça o Mar
                        Dm
É como um Filho a nascer

                           Bb
E há-de haver outra maneira
                         F
de contar a quem não sabe
                        C
Se me dás a Vida inteira
                     F
Porque só vivi metade.


Refrão:
F                    Bb 
Leva-me de volta a casa
        C             F
Abre as portas do jardim
                    Bb
Deita-me na tua cama
           C         F
Diz que sim, diz que sim.


F                    Bb 
Leva-me de volta a casa
        C            F
Abre as portas do jardim
                    Bb
Deita-me na tua cama
           C         F
Diz que sim, diz que sim.


Intro 1x


Segue por este caminho
Apanha Luas de Prata
Um Beijo é o nosso destino
Beijo que fere e não mata.
E agora…
Somos mais corpo que dantes.


Não temos frio no fogo,
Trazes por dentro o verão,
Vejo-me em ti e descubro
Somos luz, sombras não.
E agora…
Voámos em contramão.


Pré-refrão

Refrão


Solo: Dm Bb F C Dm
      Dm Bb F C F

e||------------------------------------------------------------------------||
B||------------------------------------------------------------------------||
G||---9-8-6------------9-8-6--------------9-8-6------------9-8-6-----------||
D||---------8-5-6-8----------8-5-6-5------------8-5-6-8----------8-5-3-----|| 2x 
A||--------------------------------------------------------------------6---||
E||------------------------------------------------------------------------||


Refrão:
F                    Bb 
Leva-me de volta a casa
        C             F
Abre as portas do jardim
                    Bb
Deita-me na tua cama
           C         F
Diz que sim, diz que sim.


F                    Bb 
Leva-me de volta a casa
        C             F
Abre as portas do jardim
                    Bb
Deita-me na tua cama
           C         F
Diz que sim, diz que sim.



Solo final:  F  Bb C F  Bb C F 

      F                         Bb                 C    
e||------------------------------------------------------------------||
B||---\13-14--13--11--9--11--13--14----14--13--11--9--8--------------||
G||-------------------------------------------------------10--8------||
D||------------------------------------------------------------------||
A||------------------------------------------------------------------||
E||------------------------------------------------------------------||
 
      F                      Bb                C          F
e||------------------------------------------------------------------||
B||---14--13--11--9--11--13--14----14--14--11--9--11--13--9----------||
G||------------------------------------------------------------------||
D||------------------------------------------------------------------||
A||------------------------------------------------------------------||
E||------------------------------------------------------------------||
Tap to rate this tab
# A B C D E F G H I J K L M N O P Q R S T U V W X Y Z