Song name
# A B C D E F G H I J K L M N O P Q R S T U V W X Y Z

Pedro Abrunhosa - Tu No Sabes tab

recommended Instrument: Piano

     Q    Q    Q.     S T T    Q    Q    Q     Q       Q    Q    Q    S E.   
E||-----------------------1-|--6---------4-----9----|--2---------2----2-4---|
B||---------------------2---|--7---------6-----9----|--4---------4----4-6---|
G||-------------------------|--6----3----6----10----|--4---------4----4-6---|
D||-------------------------|-------4----6----11----|--4----4----4----------|
A||-------------------------|-----------------11----|--2----2----2----------|
E||-------------------------|-----------------------|-----------------------|


  Q    Q    Q     Q       Q    Q    Q    E  E     Q    Q    Q     Q     
--2----2----4-----9----|--2---------7----6--4--|------------4-----9----|
--2----2----6-----9----|--4----4---------------|--7---------6-----9----|
--3----3----6----10----|--4----4---------------|--6----3----6----10----|
--4---------6----11----|--4--------------------|--8----4----6----------|
-----------------11----|--2--------------------|-----------------------|
-----------------------|-----------------------|-----------------------|


  Q    Q    Q    S E.     Q    Q    Q     Q       E  E  Q    Q    S E.   
--2---------7----2-4---|------------4-----9----|--2----------7----2-4---|
--4--------------4-6---|--2---------6-----9----|--4---------------4-6---|
--4---------4----4-6---|--3----3----6----10----|--4----------4----4-6---|
--4----4----4----------|--4----4----6----11----|--4--4--4----4----------|
--2----2----2----------|-----------------11----|--2--2--2----2----------|
-----------------------|-----------------------|-----2------------------|


            ^ ^                                                             
  Q    E  S S Q    Q       Q    Q    S S S S E  E     Q    Q    Q     Q     
------------6-4----4----|--2---------6---2-6-4--1--|--6---------4-----4----|
--2-------2---6----6----|--4-----------2-----------|--7---------6-----6----|
--3----3------6----6----|--4----4------------------|--6----3----6-----6----|
--4----4-----------6----|--4----4------------------|--8----4----6-----6----|
------------------------|--------------------------|-----------------11----|
------------------------|------------6-------4-----|-----------------------|


  Q    Q    Q    S E.     Q    S S E  Q    Q       Q    Q    Q    S E.   
--2--------------2-4---|--6----6-----------4----|--2--------------2-4---|
--4---------4----4-6---|--7--------7--6----6----|--4---------4----4-6---|
--4---------4----4-6---|--6------6---------6----|--4---------4----4-6---|
--4----4----4----------|--8----------------6----|--4----4----4----------|
--2----2----2----------|-------------------4----|--2----2----2----------|
-----------------------|------------------------|-----------------------|


  Q    E.  T T Q    Q       Q    E.  S S E  S E  E     Q    Q    Q     Q     
--6-----------------4----|--2-----------------------|--2---------4-----4----|
--7------------6----6----|--4----------4----6-7-----|--2---------6-----6----|
--6----6-----6------6----|--4--------4---4-------4--|--3----3----6-----6----|
--8----8---6--------6----|--4----4------------------|--4----4---------------|
-------------------------|--2----2------------------|--4--------------11----|
-------------------------|--------------------------|-----------------------|


  Q    Q    S S S S E  E     Q    Q    Q    Q     
--2---------6---2-6-4--1--|--6----6----4----4----|
--4-----------2-----------|--7----7----6----6----|
--4----4------------------|--6----6----6----6----|
--4----4------------------|--8----8----6---------|
--------------------------|----------------------|
------------6-------4-----|----------------------|


  E  E  E   E  E   E  E   S S    Q    Q    Q     Q       Q    Q    Q    S S E   
--7---------------------------|------------4-----4----|--2---------1----4-2-1--|
--7---------------------------|------------6-----6----|--4---------2-----------|
--8------------8------8-------|-------3----6-----6----|--4---------1-----------|
--9-----8--11-----11-----11-6-|--8----4----6-----6----|--4----4----------------|
--9--9------------------------|-----------------11----|--2----2----------------|
------------------------------|-----------------------|------------------------|


  Q    Q    Q     Q       Q    Q    S  S. S. S  S. S.   Q    Q    Q     Q     
--2---------4-----9----|--2-----------11-13-14-16-18-|--6---------4-----9----|
--2---------6-----9----|--4---------4--4--6--7--9-11-|--2---------6-----9----|
--3----3----6----10----|--4---------4----------------|--3----3----6----10----|
--4----4----6----11----|--4----4----4----------------|--4----4----6----11----|
-----------------11----|--2----2---------------------|-----------------11----|
-----------------------|-----------------------------|-----------------------|


  Q    Q    Q    S E.     Q    Q    Q    Q       Q    Q    Q    S E.   
--2--------------2-4---|--6---------4----4----|--2--------------2-4---|
--4---------4----4-6---|--2--------------6----|--4---------4----4-6---|
--4---------4----4-6---|--3----3---------6----|--4---------4----------|
--4----4----4----------|--4----4---------6----|--4----4----4----------|
--2----2----2----------|----------------------|--2----2----2----------|
-----------------------|----------------------|-----------------------|


  E.  S E.  S Q    Q       Q    Q    Q    S E.     Q    E.  S Q    Q     
--2-----6---4-4----4----|--2--------------2-4---|--2--------2-1----4----|
--2---2------------6----|--4---------4----4-6---|--2---------------6----|
--3----------------6----|--4----4----4----------|--3---------------6----|
--4----------------6----|--4----4----4----------|--4---------------6----|
------------------------|--2----2----2----------|-------4----------4----|
------------------------|-----------------------|-----------------------|


  Q    Q     S  S. S. S  S. S.   Q    Q    Q     Q       Q    Q    Q    S E.   
--2---------11-13-14-16-18-19-|--6---------4-----9----|--2---------2----2-4---|
--4----------4--6--7--9-11-12-|--2---------6-----9----|--4---------4----4-6---|
--4----4----------------------|--3----3----6----10----|--4---------4----4-6---|
--4----4----------------------|--4----4----6----11----|--4----4----4----------|
------------------------------|-----------------11----|--2----2----2----------|
------------------------------|-----------------------|-----------------------|


  Q    Q    H           H        Q    Q       E  E  E  E   E  E  E  S S  
--2---------4--------|--L------------------|--6--6--7--9--11--9--7--4-6-|
--2---------6--------|--L------------------|--7-------------------------|
--3---------6--------|--L------------------|--6-------------------------|
--4----4----6--------|--L------------------|----------------------------|
-------4-------------|---------------------|--9-------------------------|
---------------------|---------------------|----------------------------|


  E  E  E  E  Q    E  S S    Q    Q    Q    S E.   
--------2--6--4----4--1-2-|--L--------------------|
-----2--------------------|------------4----4-6---|
-------------------6------|------------4----4-6---|
-------------------6------|--4----4----4----------|
--1-----------------------|--2----2----2----------|
--------------------------|--2----2---------------|


  E  S  S  E  S S Q    E  S S    Q    Q    Q    S E.   
--6--9-18-18--9-6-4----4--1-2-|--L--------------------|
--7--2-11-11--2--------6------|--4----4----4----4-6---|
--6--------------------6------|--4----4----4----4-6---|
--8---------------------------|--4----4----4----4-6---|
------------------------------|-------2----2----------|
------------------4-----------|-----------------------|


  Q    E.  T T Q     Q       Q    Q    Q    S E.     Q    E.  T T Q     Q     
--6------------4-----4----|--2---------2----2-4---|--6------------4-----4----|
--2--------2-4-6-----6----|--4---------4----4-6---|--2--------2-4-6-----6----|
--3------------6-----6----|--4---------4----4-6---|--3------------6-----6----|
--4----4-------6-----6----|--4----4----4----------|--4----4-------6-----6----|
-------4------------11----|--2----2----2----------|-------4------------11----|
--------------------------|-----------------------|--------------------------|


  Q    Q    Q    S E.     Q    E  S S Q    E.  S    Q    Q    S S S S E  E   
--2---------2----2-4---|--6----6------4----4-----|-------2----6---2-6-4--1--|
--4---------4----4-6---|--7----7----7-6----6---2-|--4----4------2-----------|
--4---------4----4-6---|--6----6--6---6----6-----|--4----4------------------|
--4----4----4----------|--8----8-----------6-----|--4----4------------------|
--2----2----2----------|-------------------------|--------------------------|
-----------------------|-------------------------|------------6-------4-----|


  Q    Q    Q    Q       Q    Q    Q    S E.     Q    S S E  Q    Q     
--6---------4----4----|--2----2----2----2-4---|--6----6-----------4----|
--7----7----6----6----|--4----4----4----4-6---|--7--------7--6----6----|
--6----6----6----6----|--4----4----4----4-6---|--6------6----6----6----|
--8----8----6----6----|--4----4----4----4-6---|--8-----------6----6----|
----------------------|-----------------------|------------------------|
----------------------|-----------------------|------------------------|


  Q    Q    Q    S E.     Q    E  E  Q    E  E     Q    E  E  Q    E  E   
--2----2----2----2-4---|--2-------6--4----------|----------4--1----------|
--4----4----4----4-6---|--2----2----------2--4--|--L----4----------2--4--|
--4----4----4----4-6---|--3---------------------|------------------------|
--4----4----4----4-6---|--4---------------------|------------------------|
-----------------------|------------------------|------------------------|
-----------------------|-------------4----------|--2---------------------|


  Q    E  E  Q    E  E     Q    E  E  Q    Q       Q    E  E  E  E  Q     
-------2--6--4----------|----------4--1---------|--2---------------------|
--L----2--7--6----2--4--|--L----4----------2----|--4----------------4----|
------------------3--4--|-----------------------|--4-------------3-------|
------------------------|-----------------------|--4-------3--4----------|
------------------------|-----------------------|-------6----------------|
--2---------------------|--2--------------------|------------------------|


                     >  >                                
  Q     H         T  T  E.                               
-------14--------18-23-30---|------|-------------------||
--6-------------------------|------|-------------------||
----------------------------|------|-------------------||
----------------------------|------|-------------------||
----------------------------|------|-------------------||
----------------------------|------|-------------------||




Duration Legend
---------------
W - whole
H - half
Q - quarter
E - 8th
S - 16th
T - 32nd
X - 64th
. - note dotted
|-n-|  - n-tuplets


Tablature Legend
----------------
L - tied note
x - dead note
g - grace note
(n) - ghost note
> - accentuded note
NH - natural harmonic
AH - artificial harmonic
TH - tapped harmonic
SH - semi harmonic
PH - pitch harmonic
h - hammer on
p - pull off
b - bend
br - bendRelease
pb - preBend
pbr - preBendRelease
brb - bendReleaseBend
\n/ - tremolo bar dip
\n - tremolo bar dive
-/n - tremolo bar Release up
/n\ - tremolo bar inverted dip
/n - tremolo bar return
-\n - tremolo bar Release down
S - shift slide
s - legato slide
/ -  slide into from below or out of upwards
\ -  slide into from above or out of downwards
~ - vibrato
W - wide vibrato
tr - trill
TP - tremolo picking
T - tapping
S - slap
P - pop
< - fade in
^ - brush up
v - brush down
Tap to rate this tab
# A B C D E F G H I J K L M N O P Q R S T U V W X Y Z