Song name
# A B C D E F G H I J K L M N O P Q R S T U V W X Y Z

Pedro Suarez Vertiz - Sentimiento Increible tab

Help us improve GuitareTab! Take a short survey!
1.

e|-------->
B|--6h4~~~>
G|--6h4~~~>
D|-------->
A|-------->
E|-------->

2.
       Abm                   B             F#            Db
e|-----------4-|-----|--------------|------6-------|----4-----4-|
B|-------4-----|-----|--------------|----7---7-----|--6-----6---|
G|---------4---|-----|------8---8---|--6-------6---|------6-----|
D|-----6-------|-----|----9---9---9-|------------8-|6-----------|
A|-------------|-----|--9-----------|9-------------|------------|
E|-4-4---------|4--6-|7-------------|--------------|------------|

1.

e|-------------->
B|-------------->
G|--6/8-8\6h4~~~>
D|--6/9-9\6----->
A|-------------->
E|-------------->

2.
       Abm                    B              F#            Db
e|-------------|-----|----------7-----|------6-------|----4-----4-|
B|-----------4-|-----|------------7---|----7---7-----|--6-----6---|
G|-------4-----|-----|------8-------8-|--6-------6---|------6-----|
D|---------6---|-----|----9---9-------|------------8-|6-----------|
A|-----6-------|-----|--9-------------|9-------------|------------|
E|-4-4---------|4--6-|7---------------|--------------|------------|



   Abm      B                  F#         Db
Silencio, ... cuando miro tus ojos ... y beso tu piel
  Abm    B                   F#         Db
muero, ... cuando me das placer ... envuelto en amor
     E1                        C#m                           F#
no puedo, ... mantenerme insensibleeeeee ... me adormece tu voz
                 D#m7                 E2                    Abm ...       
sentimiento increbleeeeee ... yo regreso, regreso y nunca logro hacer.

... B - F# - Db ...


      Abm     B                      F#              Db
Me encanta, ... que te mueras por mi ... te encanta mi seduccin
   Abm  B                     F#            Db
y se, ... cambiarias mil caricias ... por palabras de amor
    E1                     C#m                            F#
terrible, ... gozar una cariciaaaaaa ... matando una ilusin
              D#m7                 E2                   B
desviar a la vidaaaaaa ... es un juego que nunca podr dominar.


   E1                                                       F#
Intento, ... controlar mis instintoooooos ... no daar al amor
               D#m7                 E2                    B
soy tu nico amigoooooo ... yo no se, yo no se si debo aprovechar.



SOLO

1.

e|----------------------->
B|--6h------------------->
G|--6p4p4---------------->
D|--------4h6~~~4h6p4~~~~>
A|----------------------->
E|----------------------->

e|---------------------------------------------------------------------|
B|--9-9-11-11h12p11-9\7-7h9---7/9-9-9----------------------------------|
G|--------------------------8---------11\8-8-8h9p8\6-6-4-6-6~~~6-4---4-|
D|-----------------------------------------------------------------6---|
A|---------------------------------------------------------------------|
E|---------------------------------------------------------------------|


Silencio, ... cuando miro tus ojos ... y beso tu piel
tu nombre, ... siempre esta junto a mi ... siempre a mi lado tu amor
de pronto, ... una eterna alegraaaaaa ... de pronto un eterno dolor
las pasiones terminaaaaaan ... y el recuerdo se encarga de la soledad.

Intento, ... controlar mis sentidoooooos ... yo no quiero llorar
tu me diste la vidaaaaaa ... yo te di los secretos de la soledad.

da ra ra, da ra ra ra ra ra raaaaaa ... da ra ra ra ra raa ..........



	ACORDES

    Db  | Abm |  B  | F#  | E1  | E2  | C#m |D#m7 |
        |     |     |     |     |     |     |     |
  e--4--|--4--|--7--|--6--|--4--|--7--|--4--|--6--|
  B--6--|--4--|--7--|--7--|--5--|--9--|--5--|--7--|
  G--6--|--4--|--8--|--6--|--4--|--9--|--6--|--6--|
  D--6--|--6--|--9--|--8--|--6--|--9--|--6--|--8--|
  A--4--|--6--|--9--|--9--|--7--|--7--|--4--|--6--|
  E--4--|--4--|--7--|--X--|--X--|--7--|--4--|--6--|

Related for Sentimiento Increible tab