Song name
# A B C D E F G H I J K L M N O P Q R S T U V W X Y Z

Pedro The Lion - The Bells tab

Song: The Bells
Artist: Pedro the Lion
Album:  Itís Hard to Find A Friend
Transcribed By: Nate Bruneau (natebruneau@gmail.com)

(Hold on for a sec)

Verse

e------------------------------------------------|	(5x)
b----7---------7------5---7----------------------|
g-------7----------7-----------7-----------------|
d-5---------7------------------------------------|
a------------------------------------------------|
e------------------------------------------------|

e------------------------------------------------|	
b------------------------------------------------|
g-7----------------------------------------------|
d-7---------7------------------------------------|
a-5---------7------------------------------------|
e-----------5------------------------------------|

Pre-Chorus

e------------------------------------------------|	
b----7----7-----7-----7-----8-----8-----8-----8--|
g------7-----7-----7-----------7-----7-----7-----|
d------------------------5-----------------------|
a-5----------------------------------------------|
e------------------------------------------------|

e------------------------------------------------|	
b----7----7-----7-----7--------------------------|
g------7-----7-----7---------9-----9-----9-----9-|
d--7---------------------------------------------|
a-------------------------7-----7-----7-----7----|
e------------------------------------------------|

Chorus

e------------------------------------------------|	
b------------------------------------------------|
g------------------------------------------------|
d----4-----5--4-----4-----5--4-------------------|
a-5-----5--------5-----5-------------------------|
e------------------------------------------------|

e------------------------------------------------|	
b------------------------------------------------|
g------------------------------------------------|
d----4-----4--------4-----4-------4--------------|
a-5-----5--------2-----2-----2/4--5--------------|
e------------------------------------------------|

e------------------------------------------------|	
b------------------------------------------------|
g------------------------------------------------|
d-------4--5--4--0-------------------------------|
a----2--0--------5-------------------------------|
e-0----------------------------------------------|

Outro


e------------------------------------------------|	(3x)
b----7---------7------5---7----------------------|
g-------7----------7-----------7-----------------|
d-5---------7------------------------------------|
a------------------------------------------------|
e------------------------------------------------|

e------------------------------------------------|
b----7------0------------------------------------|
g-------7---7------------------------------------|
d-5---------7------------------------------------|
a-----------5------------------------------------|
e------------------------------------------------|

Verse (X2)
Pre-Chorus (x2)
Chorus
Verse
Pre-Chorus (X2)
Chorus
Verse
Outro
Tap to rate this tab
# A B C D E F G H I J K L M N O P Q R S T U V W X Y Z