Song name
# A B C D E F G H I J K L M N O P Q R S T U V W X Y Z

Pedro The Lion - Nothing tab

-------------------------------------------------------------------------------
			     NOTHING - Pedro The Lion
-------------------------------------------------------------------------------
Tabbed by: Jay Morales
Email: youtube.com/jayseatingworld

Tuning: Standard

e|--------------------------------------------------------------------------|
B|--------------------------------------------------------------------------|
G|-----4---4---4---4---5---5---5---5---5---5---5---5---5---5---5---5--------|
D|---5---5---5---5---5---5---5---5---5---5---5---5---4---4---4---4----------|
A|---------------------------Play-5-times-----------------------------------|
E|--------------------------------------------------------------------------|

Then at 0:50 some power chords come in:

e|--------------------------------------------------------------------------|
B|--------------------------------------------------------------------------|
G|---5-----5-5-5-5-8-----------------------------------5-5-5-5-5-5-5-5------|
D|---5-----5-5-5-5-8---5-5-5-5-5-5-5-5-5-5-5-5-5-5-5-5-5-5-5-5-5-5-5-5------|
A|---3-----3-3-3-3-6---5-5-5-5-5-5-5-5-5-5-5-5-5-5-5-5-3-3-3-3-3-3-3-3------|
E|---------------------3-3-3-3-3-3-3-3-3-3-3-3-3-3-3-3----------------------|

e|--------------------------------------------------------------------------|
B|--------------------------------------------------------------------------|
G|---5-5-5-5-5-5-5-5-4-4-4-4-4-4-4-4-5-5-5-5-5-5-5-5-8----------------------|
D|---5-5-5-5-5-5-5-5-4-4-4-4-4-4-4-4-5-5-5-5-5-5-5-5-8----------------------|
A|---3-3-3-3-3-3-3-3-2-2-2-2-2-2-2-2-3-3-3-3-3-3-3-3-6----------------------|
E|--------------------------------------------------------------------------|

That is all! Pretty easy. The rest repeats until the end.

Have a nice day.

song: http://www.youtube.com/watch?v=DiR6rYKNwGg

lyrics:

if only the rules were built upon philosophy that i embraced 
i'd hug your neck and kiss your face 
but its very obvious that your ideals are not for me 
you'll tell me what to do 
but you will see that i do as i please 
cause i want to do it my way 
i want to fly 

the problem with rules is they alienate the criminals 
when whose to say if what they did was wrong that day 
if you'd open your mind up 
you'd see that there is nothing that's always wrong 
no matter what you say 
it's just not true that there's only one way 
i hope we have ourselves an understanding
Tap to rate this tab
 
# A B C D E F G H I J K L M N O P Q R S T U V W X Y Z