Song name
# A B C D E F G H I J K L M N O P Q R S T U V W X Y Z

Pedro The Lion - Magazine tab

Intro: no guitar

This line is metaphysical
And on the one side, on the one side
The bad half live in wickedness
And on the other side, on the other side
The good half live in arrogance
And there's a steep slope
With a short rope
This line is metaphysical
And there's a steady flow
Moving to and fro
______________________________________________________________________
Verse(eighth notes changing on off beats)

 |   {measure}    |                |                |                |
e|----------------|----------------|----------------|----------------|
B|----------------|----------------|----------------|----------------|
G|----------------|----------------|----------------|--0-0-0-0-------|
D|7-7-7-7-7-3-3-3-|5-5-5-7-7-7-7-7-|3-3-3-3-3-------|----------3-3-3-|
A|----------------|----------------|----------5-5-5-|5---------------|
E|----------------|----------------|----------------|----------------|

Oh, look you earned your wings
Are you an angel, now
Or a vulture
Constantly hovering over
Waiting for a big mistake

Oh, my God, what have I done?
Oh, my God, what have I done?
______________________________________________________________________
Chorus (also eighth notes - chords)

  wouldn't you....
e|---------------|---------------|
B|---------------|---------------|
G|---------------|---------------|
D|3-3-3-3-3-3-3-3|2-2-2-2-2-2-2-2|    > X 2
A|5-5-5-5-5-5-5-5|0-0-0-3-3-3-3-3|
E|---------------|---------------|

magazine....
e|---------------|---------------|
B|---------------|---------------|
G|---------------|---------------| REPEAT ALL
D|3-3-3-3-3-3-3-3|------5-5-5-5-5|
A|1-1-1-1-1-1-1-1|5-5-5-3-3-3-3-3|
E|---------------|3-3-3----------|

Wouldn't you love to be
On the cover of a magazine?
Healthy skin, perfect teeth
Designed to hide what lies beneath
______________________________________________________________________
2nd Verse (little more complicated syncopated picking part, but pretty simple.  as 
before each DASH AND STROKE is a 16th note)


e|----------------|----------------|----------------|----------------|
B|----6---5-------|----------------|----6---5-----3-|--------3---3---|
G|--------------7-|----5---7-5h7-3-|------3-----3---|----5-----5-----|
D|7-----7-----7---|--7-------------|----------------|----------------|
A|----------------|----------------|----------------|----------------|
E|----------------|----------------|----------------|----------------|

e|----------------|----------------|
B|----6---5-----3-|--------3-------|
G|--3---3-----3---|--3-5-----5s7---| REPEAT
D|3---------------|----------------|
A|----------------|----------------|
E|----------------|----------------|

I feel the darkness growing stronger
As you cram light down my throat
How does that work out for you
In your holy quest to be above reproach?


___________________________________________________________________
Bridge instrumental (pre-chorus)

pickup mesure  |
(last mesure of| Bridge--->
verse)     <---|
e  ----------5-|----------------|--------------6-|----------------|
B  ------------|------6---------|----------------|------5-------6-|
G  ------5h7---|--------------7-|----------------|----------------|
D  ------------|----------------|----------5h7---|----------------| Repeat
A  ------------|----------------|----------------|----------------|
E  ------------|----------------|----------------|----------------|




WRBRASCH
Tap to rate this tab
 
# A B C D E F G H I J K L M N O P Q R S T U V W X Y Z