Pedro The Lion - Bad Diary Days tab

This is so you can play both the bass and guitar parts on your guitar at the same time. 
Sounds good to me this way.

Pedro the Lion
Bad Diary Days

Drop D tuning


Intro
e|-------------------|
B|-------------------|
G|-------------------|
D|-5----4-----7------|
A|-------------------|
E|-2----4-----7------|


Verse

e|--------------------------------------------------------------------|
B|--------------------------------------------------------------------|
G|--------------------------------------------------------------------|
D|------------------4-4-4-4-4-4-2-2--4-4-4-5-5-5-5-5-7-7-7-7----------|
A|-9-9-9-9-9-9-7-7----------------------------------------------------|
E|-0-0-0-0-0-0-0-0--4-4-4-4-4-4-4-4--5-5-5-5-5-5-5-5-5-5-5-5----------|


Chorus

e|-------------------------------------------------|
B|-------------------------------------------------|
G|-------------------------------------------------|
D|-5-5-5-5-5-5-5-5--4-4-4-4-4-4-4-4--2~------------|
A|-------------------------------------------------|
E|-2-2-2-2-2-2-2-2--4-4-4-4-4-4-4-4--5~------------|


Interlude

e|----------------------------------------------------|
B|----------------------------------------------------|
G|----------------------------------------------------|
D|----------------------------------------------------|
A|-5-----7-----9---7-----5-----4---5------------------|
E|-0-0-0-0-0-0-0-0-7-7-7-7-7-7-7-7-5-5-5-5-5-5-5-5----|


e|----------------------------------------------------|
B|----------------------------------------------------|
G|----------------------------------------------------|
D|-7-----5--------------------------------------------|
A|-5-----7-----9---7-----5-----4---5------------------|
E|-0-0-0-0-0-0-0-0-7-7-7-7-7-7-7-7-5-5-5-5-5-5-5-5----|




Bridge

e|-----------------------------------------------------------|
B|-----------------------------------------------------------|
G|-----------------------------------------------------------|
D|-7-----5-----4---2-----4-----0-----------------------------|
A|---------------------------------5-5-5-5-5-5-5-5-----------|
E|-0-0-0-0-0-0-0-0-4-4-4-4-4-4-4-4-5-5-5-5-5-5-5-5-----------|


Interlude

e|--------------------------------------------------------------|
B|--------------------------------------------------------------|
G|-7-7-7-9-9-9-11-11----9-9-9-7-7-7---------7-7-7-7-7-7-7-7-----|
D|-x-x-x-x-x-x-x--x-----7-7-7-7-7-7-11-11---5-5-5-5-5-5-5-5-----|
A|-5-5-5-7-7-7-9--9-----7-7-7-7-7-7-7--7----5-5-5-5-5-5-5-5-----|
E|-0-0-0-0-0-0-0--0-----7-7-7-7-7-7-7--7----5-5-5-5-5-5-5-5-----|



Barely ever fight
She knows that I love her
At first we made it every night
But I don't want to bug her about it
She just has a funny way of loving me

A pair of ticket stubs in her desk
A movie I've never seen
I probably shouldn't ask
It sounds so accusing
She must have forgotten to mention girl's night out

The breakfast cereal talked
More than we did all day
I asked her for a walk
But she had to be on her way
So I told her that I knew she'd been stepping out

She swore that she could explain
She swore that it would not happen again
She swore that she could explain
We both knew her words were in vain
Tap to rate this tab
 
# A B C D E F G H I J K L M N O P Q R S T U V W X Y Z