Song name
# A B C D E F G H I J K L M N O P Q R S T U V W X Y Z

Pedro The Lion - I Am Always The One Who Calls tab

I tried to learn this song using the other tabs posted
and they all call for a 5th-to-1st fret stretch in the
intro. I decided to find a video of Dave playing it
because I wasn't convinced that it was humanly possible.
Turns out, he plays it in drop D and its a lot easier.
So I made a tab based on what I think he's playing in
the video. I can't guarantee that its 100% correct but
its pretty dang close. Sounds right, anyways.
Hope this helps, its an amazing song!


Intro:

e|-----------------------------------------------------------------------|
B|-----------------------------------------------------------------------|
G|-----------------------------------------------------------------------|
D|8--8--8--8-8-8-8-8-8--8--8--8-8-8-8-8-5-5-5-3-3-3-3-3-5-5-5-3-3-3-3-3--|
A|10-10-10-8-8-8-8-8-10-10-10-8-8-8-8-8-3-3-3-3-3-3-3-3-3-3-3-3-3-3-3-3--|
D|8--8--8--8-8-8-8-8-8--8--8--8-8-8-8-8-3-3-3-3-3-3-3-3-3-3-3-3-3-3-3-3--|

e|---------------------------------------|
B|---------------------------------------|
G|---------------------------------------|
D|8--8--8--8-8-8-8-8-8--8--8--8-8-8-8-8--|
A|10-10-10-8-8-8-8-8-10-10-10-8-8-8-8-8--|
D|8--8--8--8-8-8-8-8-8--8--8--8-8-8-8-8--|


Verse:

(Satellites mediate...)
e|-----------------------------------------------------------------|
B|-----------------------------------------------------------------|
G|-----------------------------------------------------------------|
D|3-3-3-3-3-3-3-3-3-3-3-3-7-7-7-7-7-7-7-7-7-7-7-7------------------|
A|3-3-3-3-3-3-3-3-3-3-3-3-5-5-5-5-5-5-5-5-5-5-5-5------------------|
D|3-3-3-3-3-3-3-3-3-3-3-3-0-0-0-0-0-0-0-0-0-0-0-0------------------|

(for us the day's events...)
e|-----------------------------------------------------------------|
B|-----------------------------------------------------------------|
G|-----------------------------------------------------------------|
D|3-3-3-3-3-3-3-3-3-3-3-3-7-7-7-7-7-7-7-7-7-7-7-7------------------|
A|3-3-3-3-3-3-3-3-3-3-3-3-5-5-5-5-5-5-5-5-5-5-5-5------------------|
D|3-3-3-3-3-3-3-3-3-3-3-3-0-0-0-0-0-0-0-0-0-0-0-0------------------|

(through fiber optics...)
e|-----------------------------------------------------------------|
B|-----------------------------------------------------------------|
G|-----------------------------------------------------------------|
D|3-3-3-3-3-3-3-3-3-3-3-3-7-7-7-7-7-7-7-7-7-7-7-7------------------|
A|3-3-3-3-3-3-3-3-3-3-3-3-5-5-5-5-5-5-5-5-5-5-5-5------------------|
D|3-3-3-3-3-3-3-3-3-3-3-3-0-0-0-0-0-0-0-0-0-0-0-0------------------|

(hope we can change the same...)
e|-----------------------------------------------------------------|
B|-----------------------------------------------------------------|
G|-----------------------------------------------------------------|
D|3-3-3-3-3-3-3-3-3-3-3-3-7-7-7-7-7-7-7-7-7-7-7-7------------------|
A|3-3-3-3-3-3-3-3-3-3-3-3-5-5-5-5-5-5-5-5-5-5-5-5------------------|
D|3-3-3-3-3-3-3-3-3-3-3-3-0-0-0-0-0-0-0-0-0-0-0-0------------------|


Pre-chorus: (Palm muted, except for last chord) 

(I wouldn't mind...)
e|-----------------------------------------------------------------|
B|-----------------------------------------------------------------|
G|-----------------------------------------------------------------|
D|-----------------------------------------------------------------|
A|8-8-8-8-8-8-8-8-3-3-3-3-3-3-3-3-5-5-5-5-5-5-5-5-5-5-5-5-5-8-8-8--|
D|8-8-8-8-8-8-8-8-3-3-3-3-3-3-3-3-5-5-5-5-5-5-5-5-5-5-5-5-5-8-8-8--|

(I wouldn't mind...)
e|-----------------------------------------------------------------|
B|-----------------------------------------------------------------|
G|-----------------------------------------------------------------|
D|------------------------------------------------10---------------|
A|8-8-8-8-8-8-8-8-3-3-3-3-3-3-3-3-5-5-5-5-5-5-5-5-10---------------|
D|8-8-8-8-8-8-8-8-3-3-3-3-3-3-3-3-5-5-5-5-5-5-5-5-10---------------|


Chorus:

(Clear as a bell are the short breaths...)
e|-------------------------------------------------------------------------|
B|-------------------------------------------------------------------------|
G|-------------------------------------------------------------------------|
D|3-3-3-3-3-3-3-3-8-8-8-8-8-8-8-8-7-7-7-7-7-7-7-7-10-10-10-10-10-10-10-10--|
A|3-3-3-3-3-3-3-3-8-8-8-8-8-8-8-8-8-8-8-8-8-8-8-8-10-10-10-10-10-10-10-10--|
D|3-3-3-3-3-3-3-3-8-8-8-8-8-8-8-8-0-0-0-0-0-0-0-0-10-10-10-10-10-10-10-10--|

(Same as the way you that roll you your eyes...)
e|-------------------------------------------------------------------------|
B|-------------------------------------------------------------------------|
G|-------------------------------------------------------------------------|
D|3-3-3-3-3-3-3-3-8-8-8-8-8-8-8-8-7-7-7-7-7-7-7-7-10-10-10-10-10-10-10-10--|
A|3-3-3-3-3-3-3-3-8-8-8-8-8-8-8-8-8-8-8-8-8-8-8-8-10-10-10-10-10-10-10-10--|
D|3-3-3-3-3-3-3-3-8-8-8-8-8-8-8-8-0-0-0-0-0-0-0-0-10-10-10-10-10-10-10-10--|


Intro:

e|-----------------------------------------------------------------------|
B|-----------------------------------------------------------------------|
G|-----------------------------------------------------------------------|
D|8--8--8--8-8-8-8-8-8--8--8--8-8-8-8-8-5-5-5-3-3-3-3-3-5-5-5-3-3-3-3-3--|
A|10-10-10-8-8-8-8-8-10-10-10-8-8-8-8-8-3-3-3-3-3-3-3-3-3-3-3-3-3-3-3-3--|
D|8--8--8--8-8-8-8-8-8--8--8--8-8-8-8-8-3-3-3-3-3-3-3-3-3-3-3-3-3-3-3-3--|

e|---------------------------------------|
B|---------------------------------------|
G|---------------------------------------|
D|8--8--8--8-8-8-8-8-8--8--8--8-8-8-8-8--|
A|10-10-10-8-8-8-8-8-10-10-10-8-8-8-8-8--|
D|8--8--8--8-8-8-8-8-8--8--8--8-8-8-8-8--|



Verse:

(My faith in zeros and...)
e|-----------------------------------------------------------------|
B|-----------------------------------------------------------------|
G|-----------------------------------------------------------------|
D|3-3-3-3-3-3-3-3-3-3-3-3-7-7-7-7-7-7-7-7-7-7-7-7------------------|
A|3-3-3-3-3-3-3-3-3-3-3-3-5-5-5-5-5-5-5-5-5-5-5-5------------------|
D|3-3-3-3-3-3-3-3-3-3-3-3-0-0-0-0-0-0-0-0-0-0-0-0------------------|


(ones, to host our romance...)
e|-----------------------------------------------------------------|
B|-----------------------------------------------------------------|
G|-----------------------------------------------------------------|
D|3-3-3-3-3-3-3-3-3-3-3-3-7-7-7-7-7-7-7-7-7-7-7-7------------------|
A|3-3-3-3-3-3-3-3-3-3-3-3-5-5-5-5-5-5-5-5-5-5-5-5------------------|
D|3-3-3-3-3-3-3-3-3-3-3-3-0-0-0-0-0-0-0-0-0-0-0-0------------------|

(rests on hope you gave that...)
e|-----------------------------------------------------------------|
B|-----------------------------------------------------------------|
G|-----------------------------------------------------------------|
D|3-3-3-3-3-3-3-3-3-3-3-3-7-7-7-7-7-7-7-7-7-7-7-7------------------|
A|3-3-3-3-3-3-3-3-3-3-3-3-5-5-5-5-5-5-5-5-5-5-5-5------------------|
D|3-3-3-3-3-3-3-3-3-3-3-3-0-0-0-0-0-0-0-0-0-0-0-0------------------|

(I've some claim to your heart...)
e|-----------------------------------------------------------------|
B|-----------------------------------------------------------------|
G|-----------------------------------------------------------------|
D|3-3-3-3-3-3-3-3-3-3-3-3-7-7-7-7-7-7-7-7-7-7-7-7------------------|
A|3-3-3-3-3-3-3-3-3-3-3-3-5-5-5-5-5-5-5-5-5-5-5-5------------------|
D|3-3-3-3-3-3-3-3-3-3-3-3-0-0-0-0-0-0-0-0-0-0-0-0------------------|


Pre-chorus: (palm muted, except for build at end)

(I wouldn't mind...)
e|-----------------------------------------------------------------|
B|-----------------------------------------------------------------|
G|-----------------------------------------------------------------|
D|-----------------------------------------------------------------|
A|8-8-8-8-8-8-8-8-3-3-3-3-3-3-3-3-5-5-5-5-5-5-5-5-5-5-5-5-5-8-8-8--|
D|8-8-8-8-8-8-8-8-3-3-3-3-3-3-3-3-5-5-5-5-5-5-5-5-5-5-5-5-5-8-8-8--|

(I wouldn't mind...)
e|-------------------------------------------------------------------------|
B|-------------------------------------------------------------------------|
G|-------------------------------------------------------------------------|
D|------------------------------------------------10-10-10-10-10-10-10-10--|
A|8-8-8-8-8-8-8-8-3-3-3-3-3-3-3-3-5-5-5-5-5-5-5-5-10-10-10-10-10-10-10-10--|
D|8-8-8-8-8-8-8-8-3-3-3-3-3-3-3-3-5-5-5-5-5-5-5-5-10-10-10-10-10-10-10-10--|


Chorus:

(Clear as a bell are the short breaths...)
e|-------------------------------------------------------------------------|
B|-------------------------------------------------------------------------|
G|-------------------------------------------------------------------------|
D|3-3-3-3-3-3-3-3-8-8-8-8-8-8-8-8-7-7-7-7-7-7-7-7-10-10-10-10-10-10-10-10--|
A|3-3-3-3-3-3-3-3-8-8-8-8-8-8-8-8-8-8-8-8-8-8-8-8-10-10-10-10-10-10-10-10--|
D|3-3-3-3-3-3-3-3-8-8-8-8-8-8-8-8-0-0-0-0-0-0-0-0-10-10-10-10-10-10-10-10--|

(Same as the way you that roll you your eyes...)
e|-------------------------------------------------------------------------|
B|-------------------------------------------------------------------------|
G|-------------------------------------------------------------------------|
D|3-3-3-3-3-3-3-3-8-8-8-8-8-8-8-8-7-7-7-7-7-7-7-7-10-10-10-10-10-10-10-10--|
A|3-3-3-3-3-3-3-3-8-8-8-8-8-8-8-8-8-8-8-8-8-8-8-8-10-10-10-10-10-10-10-10--|
D|3-3-3-3-3-3-3-3-8-8-8-8-8-8-8-8-0-0-0-0-0-0-0-0-10-10-10-10-10-10-10-10--|


Bridge Thingy:

(call you in three weeks...)
e|-----------------------------------------------------------------|
B|-----------------------------------------------------------------|
G|-----------------------------------------------------------------|
D|11-11-11-11-11-11-11-11-6-6-6-6-6-6-6-6-11-11-11-11-11-11-11-11--|
A|11-11-11-11-11-11-11-11-6-6-6-6-6-6-6-6-11-11-11-11-11-11-11-11--|
D|11-11-11-11-11-11-11-11-6-6-6-6-6-6-6-6-11-11-11-11-11-11-11-11--|

(have some more to...)
e|-----------------|
B|-----------------|
G|-----------------|
D|8-8-8-8-8-8-8-8--|
A|8-8-8-8-8-8-8-8--|
D|8-8-8-8-8-8-8-8--|


Outro:

(say...)
e|---------------------------------|
B|---------------------------------|
G|---------------------------------|
D|3-3-3-3-3-3-3-3-8-8-8-8-8-8-8-8--|
A|3-3-3-3-3-3-3-3-8-8-8-8-8-8-8-8--|
D|3-3-3-3-3-3-3-3-8-8-8-8-8-8-8-8--|

e|--------------------------------------------|
B|--------------------------------------------|
G|--------------------------------------------|
D|7-7-7-7--7--7--7-7-10-10-10-10-10-10-10-10--|
A|8-8-8-10-10-10-8-8-10-10-10-10-10-10-10-10--|
D|0-0-0-0--0--0--0-0-10-10-10-10-10-10-10-10--|

e|---------------------------------|
B|---------------------------------|
G|---------------------------------|
D|3-3-3-3-3-3-3-3-8-8-8-8-8-8-8-8--|
A|3-3-3-3-3-3-3-3-8-8-8-8-8-8-8-8--|
D|3-3-3-3-3-3-3-3-8-8-8-8-8-8-8-8--|

e|--------------------------------------------------------------|
B|--------------------------------------------------------------|
G|--------------------------------------------------------------|
D|7-7-7-7--7--7--7-7-10-10-10-10-10-10-10-10-5-5-5-5-5-5-5/8-8--|
A|8-8-8-10-10-10-8-8-10-10-10-10-10-10-10-10-5-5-5-5-5-5-5/8-8--|
D|0-0-0-0--0--0--0-0-10-10-10-10-10-10-10-10-5-5-5-5-5-5-5/8-8--|
Tap to rate this tab
 
# A B C D E F G H I J K L M N O P Q R S T U V W X Y Z