Song name
# A B C D E F G H I J K L M N O P Q R S T U V W X Y Z

Pedro The Lion - Eye On The Finish Line tab

THESE GUYS ROCK!!!

e-----------------------------------------
B-----------------------------------------
G-----------------------------------------
D-----------------------------------------
A--1--3--4--6--8--9--8--4--6--8--4--6--3--
E-----------------------------------------

Or you can play the intro this way:

D-----------1--3--4--3-----1--3-----1-----
A--1--3--4--------------4--------4-----3--


I think this is right?

e-----------------------------------------
B-----------------------------------------
G-----------------------------------------
D--------3-3-3-3-5-5-5-3-1-1-1-0----------
A--1-1-1--------------------------3-3-5-3-
E-----------------------------------------

There is more to the song but this is all i have for now.
If you are a fan of PEDRO THE LION e-mail or if you have any 
suggestions to this tab. ickabod17@yahoo.com








Tap to rate this tab
# A B C D E F G H I J K L M N O P Q R S T U V W X Y Z