Song name
# A B C D E F G H I J K L M N O P Q R S T U V W X Y Z

Pedro The Lion - Winners Never Quit tab

THESE GUYS ROCK!!!

e---------------------------------------------------
B---------------------------------------------------
G----0------0-----0-----0-1---1----0-----1------0---
D------1------1-----1-------1--------1-----1-------1
A--1------2-----3-----4---------3------2-----1------
E---------------------------------------------------


e---------------------------------------------------
B---------------------------------------------------
G----0-----0-----0-------0--------------0------0----
D------1-----1-----1--------1----5--------1------1--
A--1-----2-----1------0------------6--0------1------
E-----------------------------4---------------------


I'm pretty sure this is it!
E-mail me if ya like PEDRO THE LION!!!
ickabod17@yahoo.com
Tap to rate this tab
 
# A B C D E F G H I J K L M N O P Q R S T U V W X Y Z