Song name
# A B C D E F G H I J K L M N O P Q R S T U V W X Y Z

Pedro The Lion - Rapture tab

Another fantastic song from Pedro the Lion that noone has ever tabbed out, that I found
least.  I found a couple wrong versions that were mostly right but had chords in it that
obviously not even in the song, so go figure.  I figured out how to play it by listening 
to it and just going chord by chord, its easy.  All powerchords pretty much.

How I'll tab most of it is by showing the lyrics above the tab lines and showing you the
powerchord to change to at exactly which word or in between which words in the song.
would be easiest.  The strumming is very very simple, youll figure it out the first time 
playing along with the song.  Enjoy.  It may not be 100% right, but when I play it
this along with the song on my stereo, it sounds damn close, so it probably is.

Standard Tuning

INTRO

e-------------------------------------------------------------------|
b-------------------------------------------------------------------|
g--------4-------4-------9-------9-------4-------4-------9-------9--|
d-------------------------------------------------------------------|
a-------------------------------------------------------------------|
e---3-3----3-3-3---3/8-8---8-8-8---8\3-3---3-3-3---3/8-8---8-8-8----|


VERSE 1

                         This is how we multiply        pity that
e-----------------------------------------------------------------|
b-----------------------------------------------------------------|
g-----------------------------------------------------------------|
d-----------------------------------------------------------------|
a--12-12-12-12-12-12-12-12-------------------14---------5---------|
e--10-10-10-10-10-10-10-10-------------------12---------3---------|

    its not my wife   the friction and skin   the trembling sigh
e-----------------------------------------------------------------|
b-----------------------------------------------------------------|
g-----------------------------------------------------------------|
d-----------------------------------------------------------------|
a----------------10-------9-------------10---------9---------5----|
e-----------------8-------7--------------8---------7---------3----|

    this is how bodies move   with everythign we could lose
e-----------------------------------------------------------------|
b-----------------------------------------------------------------|
g-----------------------------------------------------------------|
d-----------------------------------------------------------------|
a------------------------12-----------------------------14--------|
e------------------------10-----------------------------12--------|

    Pushing us deeper still      the sheets and the sweat
e-----------------------------------------------------------------|
b-----------------------------------------------------------------|
g-----------------------------------------------------------------|
d-----------------------------------------------------------------|
a---5------------------10-------------9------------10-------------|
e---3-------------------8-------------7-------------8-------------|


    The seed and the spill   the bitter pill, yet un-dis-covered
e-----------------------------------------------------------------|
b-----------------------------------------------------------------|
g-----------------------------------------------------------------|
d-----------------------------------------------------------------|
a-------9---------------7----------------5--------10--9---2-------|
e-------7---------------5----------------3---------8--7---0-------|

BRIDGE is the same as the intro.  play that again twice.


  Gideon is in the drawer   Clothes scattered on the floor
e-----------------------------------------------------------------|
b-----------------------------------------------------------------|
g-----------------------------------------------------------------|
d-----------------------------------------------------------------|
a---12---------------14------5------------------------10----------|
e---10---------------12------3-------------------------8----------|


   shes arching her back    she screams for more
e-----------------------------------------------------------------|
b-----------------------------------------------------------------|
g-----------------------------------------------------------------|
d-----------------------------------------------------------------|
a-------9------------10-----------9-------------------------------|
e-------7-------------8-----------7-------------------------------|


CHORUS

        oh my sweet rapture   I hear Jesus  call-ing  me home
e-----------------------------------------------------------------|
b-----------------------------------------------------------------|
g-----------------------------------------------------------------|
d-----------------------------------------------------------------|
a--5-------10--9-----7-------14--10---9-------10--9----7---5------|
e--3--------8--7-----5-------12---8---7--------8--7----5---3------|


BRIDGE     play intro part once then this:

e-----------------------------------------------------------------|
b-----------------------------------------------------------------|
g-----------------------------------------------------------------|
d-----------------------------------------------------------------|
a-----------------------------------------------------------------|
e---9-9-9-9-9-9-9-9-10-10-10-10-10-10-10-10-----------------------|

VERSE 2

        finally a chance to breath   reaching for the fumbled sheets
e-----------------------------------------------------------------|
b-----------------------------------------------------------------|
g-----------------------------------------------------------------|
d-----------------------------------------------------------------|
a--10-------------------------12--------5----------------------10-|
e--8--------------------------10--------3-----------------------8-|

   collapsing in    a glowing heap     weve gone too far
e-----------------------------------------------------------------|
b-----------------------------------------------------------------|
g-----------------------------------------------------------------|
d-----------------------------------------------------------------|
a------9---------10-----9---------------5----12-------14----------|
e------7----------8-----7---------------3----10-------12----------|

    weve done too much    we have to quit it
e-----------------------------------------------------------------|
b-----------------------------------------------------------------|
g-----------------------------------------------------------------|
d-----------------------------------------------------------------|
a---------15-------14---------10----------------------------------|
e---------13-------12---------8-----------------------------------|

  just one more kiss,  just one more touch,  please 10 more minutes
e------------------------------------------------------------------|
b------------------------------------------------------------------|
g------------------------------------------------------------------|
d------------------------------------------------------------------|
a--5----12-------14---------15--------14------------10-----------5-|
e--3----10-------12---------13--------12-------------8-----------3-|


The bridge part is just alternates between the 10/8 chord and the 5/3 chord


Then play the chorus one more time.

Tabbed by Steven Humphreys
Tap to rate this tab
# A B C D E F G H I J K L M N O P Q R S T U V W X Y Z