Song name
# A B C D E F G H I J K L M N O P Q R S T U V W X Y Z

Pedro The Lion - Indian Summer tab

-------------------------------------------------------------------------------
                Indian Summer - Pedro The Lion
-------------------------------------------------------------------------------
Tabbed by: Ivor Williams
E-mail: ivorofasa@gmail.com

Tuning: Standard

Intro: 6x

e|-----2---------------------------------------------------------------------|
B|-3-5---2-------------------------------------------------------------------|
G|---------------------------------------------------------------------------|
D|---------------------------------------------------------------------------|
A|---------------------------------------------------------------------------|
E|---------------------------------------------------------------------------|

Verse: 4x

e|-----2--------2------------------------------------------------------------|
B|-3-5---3----5---2----------------------------------------------------------|
G|---------------------------------------------------------------------------|
D|---------------------------------------------------------------------------|
A|---------------------------------------------------------------------------|
E|---------------------------------------------------------------------------|

Pre-Chorus:

These are the correct chords but figure out the rhythm yourself.

e|---------------------------------------------------------------------------|
B|---------------------------------------------------------------------------|
G|-7--11--9--7--9--11--------------------------------------------------------|
D|-5--8---8--9--9--0---------------------------------------------------------|
A|---------------------------------------------------------------------------|
E|---------------------------------------------------------------------------|

Chorus:

e|-3-3-3-3-3-3-3-3-----------------------------------------------------------|
B|-3-3-3-3-3-3-3-3-/-10-10-10-10-10-10-10-10---------------------------------|
G|-6-6-6-6-6-6-6-6-/-11-11-11-11-11-11-11-11---------------------------------|
D|-5-5-5-5-5-5-5-5-/-12-12-12-12-12-12-12-12---------------------------------|
A|-5-5-5-5-5-5-5-5-----------------------------------------------------------|
E|-3-3-3-3-3-3-3-3-----------------------------------------------------------|

Play the above three times, then this:

e|-3-3-3-3-3-3-3-3-----------------------------------------------------------|
B|-3-3-3-3-3-3-3-3-/-8-8-8-8-8-8-8-8-----------------------------------------|
G|-6-6-6-6-6-6-6-6-/-6-6-6-6-6-6-6-6-----------------------------------------|
D|-5-5-5-5-5-5-5-5-/-7-7-7-7-7-7-7-7-----------------------------------------|
A|-5-5-5-5-5-5-5-5-----------------------------------------------------------|
E|-3-3-3-3-3-3-3-3-----------------------------------------------------------|

(Intro x2)

Keys arranged for guitar:

"Don't you just love the sun..."

e|---------------------------------------------------------------------------|
B|---------------------------------------------------------------------------|
G|---------------------------------------------------------------------------|
D|-4-4-------2---------------------------------------------------------------|
A|-2-0-5-5-5-4---------------------------------------------------------------|
E|-----3-2-3-----------------------------------------------------------------|

Second verse: 4x

e|---------------------------------------------------------------------------|
B|---------------------------------------------------------------------------|
G|---------------------------------------------------------------------------|
D|-----4-------4-------------------------------------------------------------|
A|-5-7---5---7---4-----------------------------------------------------------|
E|---------------------------------------------------------------------------|

Pre-Chorus:

e|---------------------------------------------------------------------------|
B|---------------------------------------------------------------------------|
G|-7--11--9--7--9--11--------------------------------------------------------|
D|-5--8---8--9--9--0---------------------------------------------------------|
A|---------------------------------------------------------------------------|
E|---------------------------------------------------------------------------|

"These words are miracles..."

e|---------------------------------------------------------------------------|
B|-5-5-5-5-5-5-5-5--3-3-3-3-3-3-3-3------------------------------------------|
G|-5-5-5-5-5-5-5-5--4-4-4-4-4-4-4-4------------------------------------------|
D|-5-5-5-5-5-5-5-5--4-4-4-4-4-4-4-4------------------------------------------|
A|-3-3-3-3-3-3-3-3--2-2-2-2-2-2-2-2------------------------------------------|
E|---------------------------------------------------------------------------|


(Chorus)


Outro:

e|---------------------------------------------------------------------------|
B|-3-3-3-3-3-3-3-3--2-2-2-2-2-2-2-2------------------------------------------|
G|-2-2-2-2-2-2-2-2--2-2-2-2-2-2-2-2------------------------------------------|
D|-0-0-0-0-0-0-0-0--0-0-0-0-0-0-0-0------------------------------------------|
A|-0-0-0-0-0-0-0-0--0-0-0-0-0-0-0-0------------------------------------------|
E|---------------------------------------------------------------------------|

End on:

e|---------------------------------------------------------------------------|
B|-2-------------------------------------------------------------------------|
G|-2-------------------------------------------------------------------------|
D|-0-------------------------------------------------------------------------|
A|-0-------------------------------------------------------------------------|
E|---------------------------------------------------------------------------|


Tap to rate this tab
# A B C D E F G H I J K L M N O P Q R S T U V W X Y Z