Song name
# A B C D E F G H I J K L M N O P Q R S T U V W X Y Z

Pedro The Lion - Bad Diary Days tab

Bad Diary Days
Pedro The Lion

Standard Tuning

e-------------|
B-------------|
G-------------|
D-------------|
A--10--9--12--|
E-------------|

e----------------------------------------------------------------|
B----------------------------------------------------------------|
G----------------------------------------------------------------|
D----------------------------------------------------------------|
A--9-9-9-9-9-9-7-7-9-9-9-9-9-9-7-7-9-9-9-10-10-10-10-12-12-12-12-|
E----------------------------------------------------------------|

e--------------------------------------------------------|
B--------------------------------------------------------|
G--------------------------------------------------------|
D--------------------------------------------------------|
A--9-9-9-9-9-9-7-7-9-9-9-9-9-9-7-7-9-9-9-7-7-7-7-5-5-5-5-|
E--------------------------------------------------------|

e----------------------------------------------------------------|
B----------------------------------------------------------------|
G----------------------------------------------------------------|
D----------------------------------------------------------------|
A--9-9-9-9-9-9-7-7-9-9-9-9-9-9-7-7-9-9-9-10-10-10-10-12-12-12-12-|
E----------------------------------------------------------------|

e----------------------------------------------------------------------------------------------------------|
B----------------------------------------------------------------------------------------------------------|
G----------------------------------------------------------------------------------------------------------|
D----------------------------------------------------------------------------------------------------------|
A--9-9-9-9-9-9-7-7-9-9-9-9-9-9-7-7-9-9-9-10-10-10-10-12-12-12-12-10-10-10-10-10-10-10-10-9-9-9-9-9-9-9-9-7-|
E----------------------------------------------------------------------------------------------------------|

e----------------------------------------------------------------|
B----------------------------------------------------------------|
G----------------------------------------------------------------| x2
D----------------------------------------------------------------|
A--9-9-9-9-9-9-7-7-9-9-9-9-9-9-7-7-9-9-9-10-10-10-10-12-12-12-12-|
E----------------------------------------------------------------|

e----------------------------------------------------------------------------------------------------------|
B----------------------------------------------------------------------------------------------------------|
G----------------------------------------------------------------------------------------------------------|
D----------------------------------------------------------------------------------------------------------|
A--9-9-9-9-9-9-7-7-9-9-9-9-9-9-7-7-9-9-9-10-10-10-10-12-12-12-12-10-10-10-10-10-10-10-10-9-9-9-9-9-9-9-9-7-|
E----------------------------------------------------------------------------------------------------------|

e-------------------|   
B-------------------|   
G-------------------| x4    
D-------------------|
A--5-7-9-7-5-4-2----|   
E----------------3--|   

e----------------------------------------------------------------|
B----------------------------------------------------------------|
G----------------------------------------------------------------| x2
D----------------------------------------------------------------|
A--9-9-9-9-9-9-7-7-9-9-9-9-9-9-7-7-9-9-9-10-10-10-10-12-12-12-12-|
E----------------------------------------------------------------|

e----------------------------------------------------------------------------------------------------------|
B----------------------------------------------------------------------------------------------------------|
G----------------------------------------------------------------------------------------------------------|
D----------------------------------------------------------------------------------------------------------|
A--9-9-9-9-9-9-7-7-9-9-9-9-9-9-7-7-9-9-9-10-10-10-10-12-12-12-12-10-10-10-10-10-10-10-10-9-9-9-9-9-9-9-9-7-|
E----------------------------------------------------------------------------------------------------------|

e----------------------------------------------------------|
B----------------------------------------------------------|
G----------------------------------------------------------| x3 
D--7-7-7-5-5-5-4-4-----------------------------------------|
A--5-5-5-5-5-5-5-5-7-7-7-5-5-5-4-4-5-5-5-5-5-5-5-5-5-5-5-5-|
E------------------5-5-5-5-5-5-5-5-3-3-3-3-3-3-3-3-3-3-3-3-|

e------------------------------------|
B------------------------------------|
G------------------------------------| 
D--7-7-7-5-5-5-4-4-------------------|
A--5-5-5-5-5-5-5-5-7-7-7-5-5-5-4-4-5-|
E------------------5-5-5-5-5-5-5-5-3-|

e----------------------------------------------------------|
B----------------------------------------------------------|
G----------------------------------------------------------| x4 
D--7-7-7-5-5-5-4-4-----------------------------------------|
A--5-5-5-5-5-5-5-5-7-7-7-5-5-5-4-4-5-5-5-5-5-5-5-5-5-5-5-5-|
E------------------5-5-5-5-5-5-5-5-3-3-3-3-3-3-3-3-3-3-3-3-|

e--------------------------------------------------------------------------------------------------------|
B--------------------------------------------------------------------------------------------------------|
G--7-7-7-7-7-7-9-9-9-9-9-9-11-11-11-11-9-9-9-9-9-9-7-7-7-7-7-7-6-6-6-6-4-4-4-4-4-4-4-4-4-4-4-4-4-4-4-4-4-|
D--------------------------------------------------------------------------------------------------------|
A--5-5-5-5-5-5-7-7-7-7-7-7-9--9--9--9--7-7-7-7-7-7-5-5-5-5-5-5-4-4-4-4-2-2-2-2-2-2-2-2-2-2-2-2-2-2-2-2-2-|
E--------------------------------------------------------------------------------------------------------|

e--------------------------------------------------------------------------------------------------------|
B--------------------------------------------------------------------------------------------------------|
G--7-7-7-7-7-7-9-9-9-9-9-9-11-11-11-11-9-9-9-9-9-9-7-7-7-7-7-7-6-6-6-6-7-7-7-7-7-7-7-7-7-7-7-7-7-7-7-7-7-|
D--------------------------------------------------------------------------------------------------------|
A--5-5-5-5-5-5-7-7-7-7-7-7-9--9--9--9--7-7-7-7-7-7-5-5-5-5-5-5-4-4-4-4-5-5-5-5-5-5-5-5-5-5-5-5-5-5-5-5-5-|
E--------------------------------------------------------------------------------------------------------|

e--------------------------------------------------------------------------------------------------------------------|
B--------------------------------------------------------------------------------------------------------------------|
G--14-14-14-14-14-14-12-12-12-12-12-12-11-11-11-11-9-9-9-9-9-9-7-7-7-7-7-7-6-6-6-6-7-7-7-7-7-7-7-7-7-7-7-7-7-7-7-7-7-|
D--------------------------------------------------------------------------------------------------------------------|
A--12-12-12-12-12-12-10-10-10-10-10-10-9--9--9--9--7-7-7-7-7-7-5-5-5-5-5-5-4-4-4-4-5-5-5-5-5-5-5-5-5-5-5-5-5-5-5-5-5-|
E--------------------------------------------------------------------------------------------------------------------|

e------------------------------------------------------------------------------------|
B------------------------------------------------------------------------------------|
G--14-14-14-14-14-14-12-12-12-12-12-12-11-11-11-11-9-9-9-9-9-9-7-7-7-7-7-7-6-6-6-6-4-|
D------------------------------------------------------------------------------------|
A--12-12-12-12-12-12-10-10-10-10-10-10-9--9--9--9--7-7-7-7-7-7-5-5-5-5-5-5-4-4-4-4-2-|
E------------------------------------------------------------------------------------|
Tap to rate this tab
# A B C D E F G H I J K L M N O P Q R S T U V W X Y Z