Song name
# A B C D E F G H I J K L M N O P Q R S T U V W X Y Z

Pedros Passe - The Great Saiyaman tab

Pedro's Passe, The Great Saiyaman (Solo).
 Tabbed by Casey, abercrombie819@hotmail.com.
  
Here's the solo to The Great Saiyaman...

e-5-4-5-4-------2-2-3
B---------3-2-5------
G--------------------
D--------------------
A--------------------
E--------------------

Repeat 4x then play this...

e-12-15----12-15--22-
B--------17----------
G--------------------
D--------------------
A--------------------
E--------------------

Repeat 2x then fade. 
Pedro's Passe 4EVR!!! 
:: Ultimate Guitar Archive :: 
http://www.ultimate-guitar.com 



Tap to rate this tab
# A B C D E F G H I J K L M N O P Q R S T U V W X Y Z