Song name
# A B C D E F G H I J K L M N O P Q R S T U V W X Y Z

Peer Gunt - I Dont Wanna Be A Rock N Roll Star tab

transcribed: Pekka Huuskonen pekka.huuskonen@raketti.net

This isn't, in any means, note for note transcription of the song.
It is supposed to give somekind of overview of the song.

Tämä ei ole mitenkään tarkka 'nuotinnos',
vaan tarkoitus on antaa vinkkiä miten ko. biisi menee.


notation legend:      

/   - slide up
\   - slide down
~   - vibrato
b   - bend 1/4      
/'\ - tie
ho  - hammer on
po  - pull off


Intro:
                   
E|---------------------------------|---------------------------------|
B|-1-3-----3-----3-----3-------3-1/'\1-3-----3-----3-----3-------3-1/'
G|---2-----2-----2-----2-----------|---2-----2-----2-----2-----------|
D|-----0-0---0-0---0-0---0-0-3-----|-----0-0---0-0---0-0---0-0-3-----|
A|---------------------------------|---------------------------------|
E|---------------------------------|---------------------------------|



 <----------repeat this x times---->                           
E|---------------------------------|---------------------------------|
B'\1-3-----3-----3-----3-------3-1/'\1-3-----3-----3-----3-------1-3-|
G|---2-----2-----2-----2-----------|---2-----2-----2-----2-----------|
D|-----0-0---0-0---0-0---0-0-3-----|-----0-0---0-0---0-0---0-0-3-----|
A|---------------------------------|---------------------------------|
E|---------------------------------|---------------------------------|




Verse:
                           three times
E||----------------------------------||
B||------3-------3-------3------3-3--||
G||.-----2-------2-------2------2-2-.||
D||.-0-0---0-0-0---0-0-0---0-0-0----.||
A||----------------------------------||
E||----------------------------------||


                            fourth time
E|----------------------------------||-----------------|
B|------3-------3-------3------3----||---------6---5---|
G|------2-------2-------2------2---.||-5---5---5---5---|
D|--0-0---0-0-0---0-0-0---0-0-0--0-.||-5---5---5---5---|
A|----------------------------------||-3---3-----------|
E|----------------------------------||-----------------|



Chorus:

E|---------------------------|---------------------------|
B|---------------------------|---------------------------|
G|-7---7---7--5--5-5--2------|-7---7---7--5--5-5--2------|
D|-7---7---7--5--5-5--2------|-7---7---7--5--5-5--2------|
A|-5---5---5--3--3-2--0--0-2-|-5---5---5--3--3-2--0--0-2-|
E|---------------------------|---------------------------|


E|---------------------------|--------------------------------|
B|---------------------------|------------------------6---5---|
G|-7---7---7--5--5-5--2------|-7---7---7--5--5-5--5---5---5---|
D|-7---7---7--5--5-5--2------|-7---7---7--5--5-5--5---5---5---|
A|-5---5---5--3--3-2--0--0-2-|-5---5---5--3--3-3--3-----------|
E|---------------------------|--------------------------------|


Solo:

E|--------------------------------------------|
B|--------------------------------------------|
G|-------7po5po0-5--7~~-------7po5po0-5--7~~--|
D|-0--0--------------------0------------------|
A|--------------------------------------------|
E|--------------------------------------------|


E|---------------------------------------------------------------------------|
B|---------------------------------6po5ho8po5ho6po5-------6po5ho8po5ho6po5---|
G|-------7po5po0-5--7~~-------7po5-------------------7po5--------------------|
D|-0--0-------------------5--------------------------------------------------|
A|---------------------------------------------------------------------------|
E|---------------------------------------------------------------------------|


E|--------------------------------------------|
B|--------------------------------------------|
G|-------7po5po0-5--7~~-------7po5po0-5--7~~--|
D|-0--0--------------------0------------------|
A|--------------------------------------------|
E|--------------------------------------------|


E|---------------------------------------------------------------------------------------------|
B|----------6po5ho8po5ho6po5------6po5ho8po5ho6po5------6po5ho8po5ho6po5------6po5ho8po5ho6po5-|
G|-----7po5------------------7po5------------------7po5------------------7po5------------------|
D|-5-------------------------------------------------------------------------------------------|
A|---------------------------------------------------------------------------------------------|
E|---------------------------------------------------------------------------------------------|

                                    four times
E||------------------------------------------||
B||--8--8--8--6-----8--8--8--8---------------||
G||.-7--7--7--5-----7--7--7--7--------------.||
D||.----------------------------5--7--------.||
A||-----------------------------------8--5---||
E||------------------------------------------||

                           four times
E||--------------------------------||
B||-10-10-10-10-10--8--8-8--8--8---||
G||.-7--7--7--7--7--7--7-7--7--7--.||
D||.------------------------------.||
A||--------------------------------||
E||--------------------------------||


Bridge:
                                                                       three times
E||-------------------|------------------|------------------|-------------------||
B||-------------------|------------------|------------------|-------------------||
G||.-7-7-7-7--7-7-7-7-|-5-5-5-5--5-5-5-5-|------------------|--------------7-7-.||
D||.-5-5-5-5--5-5-5-5-|-3-3-3-3--3-3-3-3-|-5-5-5-5--5-5-5-5-|-5-5-5-5--5-5-5-5-.||
A||-------------------|------------------|-3-3-3-3--3-3-3-3-|-3-3-3-3--3-3------||
E||-------------------|------------------|------------------|-------------------||


fourth time
E|------------------|------------------|------------------|-------------------|
B|------------------|------------------|------------------|-------------------|
G|-7-7-7-7--7-7-7-7-|-5-5-5-5--5-5-5-5-|------------------|--------------7-7--|
D|-5-5-5-5--5-5-5-5-|-3-3-3-3--3-3-3-3-|-5-5-5-5--5-5-5-5-|-5-5-5-5--5-5-5-5--|
A|------------------|------------------|-3-3-3-3--3-3-3-3-|-3-3-3-3--3-3------|
E|------------------|------------------|------------------|-------------------|


2x chorus

outro:

E|--------------|
B|--3--3-----3--|
G|--2--2-----2--|
D|-------0-3----|
A|--------------|
E|--------------|


Tabbed by pekka.huuskonen@raketti.net
Tap to rate this tab
# A B C D E F G H I J K L M N O P Q R S T U V W X Y Z