Song name
# A B C D E F G H I J K L M N O P Q R S T U V W X Y Z

Peer Gunt - Bartender tab

Help us improve GuitareTab! Take a short survey!
transcribed: Pekka Huuskonen pekka.huuskonen@raketti.net

This isn't, in any means, note for note transcription of the song.
It is supposed to give somekind of overview of the song.

Tm ei ole mitenkn tarkka 'nuotinnos',
vaan tarkoitus on antaa vinkki miten ko. biisi menee.


notation legend:      

/   - slide up
\   - slide down
~   - vibrato
b   - bend 1/4      
(7) - natural harmonics


Intro:

E------------------|-------------------------|------------------|--------------------|
B-------9--7b~-----|-------------------------|-------9--7b~-----|--------------------|
G-------9--7b~-----|-------------------------|-------9--7b~-----|--------------------|
D------------------|-5------5------5--7~-----|------------------|-5-------5--7~------|
A------------------|-----7------7------------|------------------|-----7--------------|
E-5--5-------------|-------------------------|-5--5-------------|--------------------|


E------------------|-------------------------|------------------|--------------------|
B-------9--7b~-----|-------------------------|-------9--7b~-----|--------------------|
G-------9--7b~-----|-------------------------|-------9--7b~-----|--------------------|
D------------------|-5------5------5--7~-----|------------------|-5-------5--7-------|
A------------------|-----7------7------------|------------------|-----7----------4-5-|
E-5--5-------------|-------------------------|-5--5-------------|----------------2-3-|


E------------------|-------------------------|------------------|--------------------|
B-------9--7b~-----|-------------------------|-------9--7b~-----|--------------------|
G-------9--7b~-----|-------------------------|-------9--7b~-----|--------------------|
D------------------|-5------5------5--7~-----|------------------|-5-------5--7~------|
A-7----------------|-----7------7------------|------------------|-----7----------4-5-|
E-5----------------|-------------------------|-5--5-------------|----------------2-3-|

E-
-----------------|-------------------------|------------------|--------------------|
B-------9--7b~-----|-------------------------|-------9--7b~-----|--------------------|
G-------9--7b~-----|-------------------------|-------9--7b~-----|--------------------|
D------------------|-5------5------5--7~-----|------------------|-5-------5--7~------|
A-7----------------|-----7------7------------|------------------|-----7----------4-5-|
E-5----------------|-------------------------|-5--5-------------|----------------2-3-|



Verse:

E------------------|--------------|------------------|-------------|
B-------9--7-------|--------------|-------9--7-------|-------------|
G-------9--7-------|--------------|-------9--7-------|-------------|
D------------------|-5---7~-------|------------------|-5---7~------|
A-7----------------|--------------|------------------|-------------|
E-5----------------|--------------|------------------|-------------|


E------------------|--------------|------------------|-------------|
B-------9--7-------|--------------|-------9--7-------|-------------|
G-------9--7-------|--------------|-------9--7-------|-------------|
D------------------|-5---7~-------|------------------|-5---7~------|
A------------------|--------------|------------------|-------------|
E------------------|--------------|------------------|-------------|


E------------------|--------------|------------------|-------------|
B-------9--7-------|--------------|-------9--7-------|-------------|
G-------9--7-------|--------------|-------9--7-------|-------------|
D------------------|-5---7~-------|------------------|-5---7~------|
A------------------|--------------|------------------|-------------|
E------------------|--------------|------------------|-------------|


E------------------|--------------|------------------|-------------|
B-------9--7-------|--------------|-------9--7-------|-------------|
G-------9--7-------|--------------|-------9--7-------|-------------|
D------------------|-5---7~-------|------------------|-5---7v------|
A------------------|--------------|------------------|-------------|
E------------------|--------------|------------------|-------------|



Bridge:

E------------------|------------------------|------------------------|
B------------------|------------------------|------------------------|
G------------------|------------------------|------------------------|
D-7----5-----------|------------------------|------------------------|
A-5----3----5------|-5/7---7--7---7--5---7--|-5/7---7--7---7--5---7--|
E-----------3------|-3/5---5--5---5--3---5--|-3/5---5--5---5--3---5--|


E------------------|------------------|--------------------|
B------------------|------------------|--------------------|
G------------------|------------------|--------------------|
D-5---------7------|-9-9-9-9--9-9-9-9-|-9-9-9-9--9---------|
A-3----5----5------|-7-7-7-7- 7-7-7-7-|-7-7-7-7--7---4--5--|
E------3-----------|------------------|--------------2--3--|



Chorus:

E------------------|-------------------------|------------------|--------------------|
B-------9--7b~-----|-------------------------|-------9--7b~-----|--------------------|
G-------9--7b~-----|-------------------------|-------9--7b~-----|--------------------|
D------------------|-5------5------5--7~-----|------------------|-5-------5--7~------|
A-7----------------|-----7------7------------|------------------|-----7----------4-5-|
E-5----------------|-------------------------|-5--5-------------|----------------2-3-|


E------------------|-------------------------|------------------|--------------------|
B-------9--7b~-----|-------------------------|-------9--7b~-----|--------------------|
G-------9--7b~-----|-------------------------|-------9--7b~-----|--------------------|
D------------------|-5------5------5--7~-----|------------------|-5-------5--7~------|
A-7----------------|-----7------7------------|------------------|-----7----------4-5-|
E-5----------------|-------------------------|-5--5-------------|----------------2-3-|




Solo part:

E------------------|-------------------------|------------------|--------------------|
B-------9--7b~-----|-------------------------|-------9--7b~-----|--------------------|
G-------9--7b~-----|-------------------------|-------9--7b~-----|--------------------|
D------------------|-5------5------5--7~-----|------------------|-5-------5--7~------|
A------------------|-----7------7------------|------------------|-----7--------------|
E-5--5-------------|-------------------------|-5--5-------------|--------------------|


E------------------|-------------------------|------------------|--------------------|
B-------9--7b~-----|-------------------------|-------9--7b~-----|--------------------|
G-------9--7b~-----|-------------------------|-------9--7b~-----|--------------------|
D------------------|-5------5------5--7~-----|------------------|-5-------5--7~------|
A------------------|-----7------7------------|------------------|-----7--------------|
E-5--5-------------|-------------------------|-5--5-------------|--------------------|


E---------------------|-------------------|---------------------|--------------------|
B---------------------|-------------------|---------------------|--------------------|
G---------------------|-------------------|---------------------|--------------------|
D-7---7--7--7---7--7--|-------------------|-7---7--7--7---7--7--|-9-9-9-9--9---------|
A-5---5--5--5---5--5--|--7---7---7---7----|-5---5--5--5---5--5--|-7-7-7-7--7-----4-5-|
E---------------------|--5---5---5---5----|---------------------|----------------2-3-|


E---------------------|-------------------|---------------------|--------------------|
B---------------------|-------------------|---------------------|--------------------|
G---------------------|-------------------|---------------------|--------------------|
D-7---7--7--7---7--7--|-------------------|-7---7--7--7---7--7--|-9-9-9-9--9---------|
A-5---5--5--5---5--5--|--7---7---7---7----|-5---5--5--5---5--5--|-7-7-7-7--7-----4-5-|
E---------------------|--5---5---5---5----|---------------------|----------------2-3-|



Chorus:

E------------------|-------------------------|------------------|--------------------|
B-------9--7b~-----|-------------------------|-------9--7b~-----|--------------------|
G-------9--7b~-----|-------------------------|-------9--7b~-----|--------------------|
D------------------|-5------5------5--7~-----|------------------|-5-------5--7~------|
A-7----------------|-----7------7------------|------------------|-----7----------4-5-|
E-5----------------|-------------------------|-5--5-------------|----------------2-3-|


E------------------|-------------------------|------------------|--------------------|
B-------9--7b~-----|-------------------------|-------9--7b~-----|--------------------|
G-------9--7b~-----|-------------------------|-------9--7b~-----|--------------------|
D------------------|-5------5------5--7~-----|------------------|-5-------5--7~------|
A-7----------------|-----7------7------------|------------------|-----7----------4-5-|
E-5----------------|-------------------------|-5--5-------------|----------------2-3-|


Tabbed by pekka.huuskonen@raketti.net
Related for Bartender tab