Song name
# A B C D E F G H I J K L M N O P Q R S T U V W X Y Z

Peer Gunt - Bad Boys Are Here tab

transcribed: Pekka Huuskonen pekka.huuskonen@raketti.net

This isn't, in any means, note for note transcription of the song.
It is supposed to give somekind of overview of the song.

Tämä ei ole mitenkään tarkka 'nuotinnos',
vaan tarkoitus on antaa vinkkiä miten ko. biisi menee.


notation legend:      

/   - slide up
\   - slide down
~   - vibrato      
(7) - natural harmonics



Intro:
                                
E|--------------------------------------|-----------------------------------|
B|--------------------------------(7)---|-----------------------------------|
G|-----------------------------(7)------|-----------------------------------|
D|-7-7-7---5--7\--7-7-7---5--7----------|-7-7-7---5--7\---------------------|
A|--------------------------------------|-----------------------------------|
E|--------------------------------------|---------------5--5--2--5--5--2--3-|



Verse:

E|-------------------------------------|--------------------------------------|
B|-------------------------------------|--------------------------------------|
G|-------------------------------------|--------------------------------------|
D|-7-7-7---5--7-----7-7-7---5--7-------|-7-7-7---5--7-------------------------|
A|-------------------------------------|--------------------------------------|
E|---------------5~---------------5~---|---------------5~-5--5--2--5--5--2--3-|



Bridge:

E|----|---------------------------------|----|---------------------------------|
B|----|---------------------------------|----|---------------------------------|
G|----|---------------------------------|----|---------------------------------|
D|-5--|-7-7-7--5--7-----7-7-7--5--7-----|-5--|-7-7-7--5--7-----7-7-7--5--7-----|
A|-5--|---------------------------------|-5--|---------------------------------|
E|-3--|--------------5~-------------5~--|-3--|--------------5~-------------5~--|


E|----------------|----------------|-------------------------|
B|----------------|----------------|-------------------------|
G|------------7---|------------7---|-------------------------|
D|-2---10---7-7---|-2---10---7-7---|-----5-5-----5-5-----5-7-|
A|-2---10---7-5---|-2---10---7-5---|-5/7-----5/7-----5/7---7-|
E|-0----8---5-----|-0----8---5-----|-----------------------5-|



Chorus:

E|----------------------------------|------------------------|
B|----------------------------------|------------------------|
G|----------------------------------|------------------------|
D|-7-7-7--5--7-----7-7-7--5--7------|-7-7-7--5--7------5-----|
A|----------------------------------|------------------5-----|
E|--------------5~--------------5~--|--------------5~--3-----|


E|----------------------------------|------------------------|
B|----------------------------------|------------------------|
G|----------------------------------|------------------------|
D|-7-7-7--5--7-----7-7-7--5--7------|-7-7-7--5--7------5-----|
A|----------------------------------|------------------5-----|
E|--------------5~--------------5~--|--------------5~--3-----|



Solo part:

E|-------|----------|-------------|----------|-------------|-------|
B|-------|----------|-------------|----------|-------------|-------|
G|-7-----|-4----4---|-2-------4---|-4----4---|-2-------4---|-7-----|
D|-7-----|-4----4---|-2---2---4---|-4----4---|-2---2---4---|-7-----|
A|-5-----|-2----2---|-0---2---2---|-2----2---|-0---2---2---|-5-----|
E|-------|-2----2---|-0---2---2---|-2----2---|-0---2---2---|-------|


E|-------------------------|
B|-------------------------|
G|-------------------------|
D|-----5-5-----5-5-----5-7-|
A|-5/7-----5/7-----5/7---7-|
E|-----------------------5-|



Chorus 4x:



Ending:

E|------------------------|-------------------------|
B|------------------------|-------------------------|
G|------------------------|-------------------------|
D|-----5-5-----5-5-----5--|-----5-5-----5-5-----5-7-|
A|-5/7-----5/7-----5/7----|-5/7-----5/7-----5/7---7-|
E|------------------------|-----------------------5-|


Tabbed by pekka.huuskonen@raketti.net
Tap to rate this tab
# A B C D E F G H I J K L M N O P Q R S T U V W X Y Z