Song name
# A B C D E F G H I J K L M N O P Q R S T U V W X Y Z

Peer Gunt - Losin My Mind tab

Band: Peer Gnt
Song: Losin my mind
Album: Years On The Road (1989)

This is the first song Ive ever tabbed so hope it is good.
Hopefully someone else can tab the solo.

Intro & Verse:

e|-----------------------------|
B|-----------------------------|
G|-------------------------7---|
D|---------2-------5-------7---|
A|-0-1-2---2-------5-------5---|
E|-------3-0---x-x-3---x-x-----|

Chorus:

e|-----------------------|
B|-----------------------|
G|------------------7----|
D|-7---10---9-7-5---7----|
A|-7---10---9-7-5---5----|
E|-5---8----7-5-3--------|



Lost in the wind like a little child
Tryin' to find the right direction
I didn't mean to hurt you so bad
How can those little words change my life 

For the love I'll be losing my mind 

Burning in the wind like a lonely candle
I have no flame and I'm still warm
Tears in my eyes never gonna dry
Hurt so deeply when I have to go 

Chorus:
For the love I'll be losing my mind
For the love I'll be losing my mind 

Waiting for the shadows to cover my lonely way
Walking through the darkness without any sign
Lost in the wind like a little child
Tryin' to find the right direction

Chorus 
Tap to rate this tab
# A B C D E F G H I J K L M N O P Q R S T U V W X Y Z