Song name
# A B C D E F G H I J K L M N O P Q R S T U V W X Y Z

Peer Gunt - No Guts No Glory tab

Artist: Peer GŁnt
Song: No Guts, No Glory
Album: Guts And Glory (2007)
Transcribed: joskuu / joskuu[at]gmail[dot]com

This is NOT 1:1 transcription of the song.
Trying to give some overview.

First of all, place capo at 2nd fret.


Intro:					 
e|---------------------|---------------------|
B|---------------------|---------------------|
G|---4-7-4-x--7-4-7-4--|--0--4--4-7--4--0-4--|
D|---4-7-4-x--7-4-7-4--|--0--4--4-7--4--0-4--|
A|---------------------|---------------------|
E|---------------------|---------------------|


Chorus:
e|-------------------------|-------------------------------------|
B|---5-------------5-------|--5----------------------------------|
G|---4--7-4----4---4--7-4--|--4--7-4----4------7--9--4-----------|
D|------7-4----4------7-4--|-----7-4----4------7--9--4-----------|
A|-------------------------|-------------------------------------|
E|-----------5-------------|----------5-----------------5-5-6-6-7|

e|-------------------------|-----------------------------|
B|---5-------------5-------|--5--------------------------|
G|---4--7-4----4---4--7-4--|--4--7-4----4------7--9--4---|
D|------7-4----4------7-4--|-----7-4----4------7--9--4---|
A|-------------------------|-----------------------------|
E|-----------5-------------|----------5------------------|


Mainriff 1:                  3x
e|----------------------------|        e|--------------------------------|
B|----------------------------|        B|--------------------------------|
G|---4-7-4-x--7-4-7-4--0--4---|        G|---4-7-4-x----------------------|
D|---4-7-4-x--7-4-7-4--0--4---|        D|---4-7-4-x----------------------|
A|----------------------------|        A|--------------------------------|
E|----------------------------|        E|------------5-5-5-6-6-6-7-------|

Mainriff 2:                  3x
e|----------------------------|        e|--------------------|
B|----------------------------|        B|--------------------|
G|---4-7-4-x--7-4-7-4--0--4---|        G|---4-7-4-x----7--9~-|
D|---4-7-4-x--7-4-7-4--0--4---|        D|---4-7-4-x----7--9~-|
A|----------------------------|        A|--------------------|
E|----------------------------|        E|--------------------|


Pre-chorus 1:
e|--------------------------------------|
B|------5-----------5----------5---5----|
G|------4-4---------4-4--------4---4----|
D|---4----4------4----4-----4-----------|
A|---4-----------4----------4-----------|
E|--------------------------------------|

Pre-chorus 2:
e|-----------------------------------------|
B|------5-----------5----------5-----------|
G|------4-4---------4-4--------4-4---------|
D|---4----4------4----4-----4----4--4--4---|
A|---4-----------4----------4-------4--4---|
E|-----------------------------------------|


Bridge:
e|---------------|---------------|-----------------------|
B|---------------|---------------|-----------------------|
G|--4-0-4-0-4-0--|--4-0-4-0-4-0--|--4--4-4-7-4-4-7^-4-0--|
D|--4-0-4-0-4-0--|--4-0-4-0-4-0--|-----------------------|
A|---------------|---------------|-----------------------| 
E|---------------|---------------|-----------------------|

----------------------|------------------------|-----------------------|
----------------------|------------------------|-----------------------|
-4--4-4-7-4-4-7^-4-0--|-4--4-4-7-4-4-7^-4-0----|--4--4-4-7-4-4-7*-4-0--|
----------------------|------------------------|-----------------------|
----------------------|------------------------|-----------------------|
----------------------|------------------------|-----------------------|


Solo: Still working on it... Try to improvise with B pentatonic scales.


Chorus 2:
e|-----------------------|-----------------------|
B|-----------------------|-----------------------|
G|--7---9---4------------|--7---9---4------------|
D|--7---9---4------------|--7---9---4------------|
A|-----------------------|-----------------------|
E|-------------5-5-6-6-7-|-------------5-5-6-6-7-|


Outro:
e|------------------------------|-------------------------|
B|------------------------------|-------------------------|
G|--7-7--9-9--4-0-4-0--7-4-0-4--|--0-7-4-0--0-7-4-0-4-----|
D|--7-7--9-9--4-0-4-0--7-4-0-4--|--0-7-4-0--0-7-4-0-4-----|
A|------------------------------|-------------------------|
E|------------------------------|-------------------------|


Order of the riffs:
Intro           x2
Chorus
Main-riff 1
Main-riff 2     x2
Pre-chorus 1
Main-riff 2     x2
Pre-chorus 2
Chorus
Bridge
Solo
Main-riff
Chorus          x2
Chorus 2
Outro
Tap to rate this tab
 
# A B C D E F G H I J K L M N O P Q R S T U V W X Y Z