Song name
# A B C D E F G H I J K L M N O P Q R S T U V W X Y Z

Peer Gunt - Backseat tab

Peer GŁnt
Backseat


This is all you need (I don't have the solo). You just need to repeat those riffs 
through the songs.

INTRO:

E|------------------------------------------------------------------|
B|------------------------------------------------------------------|
G|5-5--8-7-5----5-5--8-7-5-----5-5--8-7-5---------------------------| X2
D|5-5--8-7-5----5-5--8-7-5-----5-5--8-7-5-------5-------------------|
A|-----------6\------------6\--------------6\---3------3-------3----|
E|------------------------------------------------3-6------3-6------|

The other guitar comes in:
E|------------------------------------------------------------------|
B|------------------------------------------------------------------|
G|5-5--8-7-5----5-5--8-7-5-----5-5--8-7-5---------------------------| X2
D|5-5--8-7-5----5-5--8-7-5-----5-5--8-7-5-------5-------------------|
A|3-3--------6\-3-3--------6\--3-3---------6\---3------3-------3----|
E|------------------------------------------------3-6------3-6------|


VERSE:

E|------------------------------------------------------------------|
B|------------------------------------------------------------------|
G|5-5--8-7-5----5-5--8-7-5-----5-5--8-7-5---------------------------| X4
D|5-5--8-7-5----5-5--8-7-5-----5-5--8-7-5-------5-------------------|
A|3-3--------6\-3-3--------6\--3-3---------6\---3------3-------3----|
E|------------------------------------------------3-6------3-6------|
  x x           x x            x x                                    P.M.

E|------------------------------------|----------------|
B|------------------------------------|----------------|
G|3--------------5--8-7-5----5--8-7-5-|-3--------------|
D|3-1-2-3--------5--8-7-5----5--8-7-5-|-3-1-2-3--------|
A|1-------1-2-3-----------6\----------|-1-------1-2-3--|
E|------------------------------------|----------------|

E|------------------------------------------------------------------|
B|------------------------------------------------------------------|
G|5-5--8-7-5----5-5--8-7-5-----5-5--8-7-5---------------------------| X2
D|5-5--8-7-5----5-5--8-7-5-----5-5--8-7-5-------5-------------------|
A|3-3--------6\-3-3--------6\--3-3---------6\---3------3-------3----|
E|------------------------------------------------3-6------3-6------|

E|------------------------------------|
B|------------------------------------|
G|3--------------5--8-7-5----5--8-7-5-|X2
D|3-1-2-3--------5--8-7-5----5--8-7-5-|
A|1-------1-2-3-----------6\----------|
E|------------------------------------|

E|------------------------------------------|
B|------------------------------------------|
G|------8--------8--------8--------8-8-8----|
D|-5----8--8-8---8--8-8---8--8-----8-8-8----|
A|-5----6--8-8---6--8-8---6--8-----6-6-6----|
E|-3-------6-6------6-6------6--------------|


CHORUS:

E|----------------------------|-------------------------------------|
B|----------------------------|-------------------------------------|
G|5-5--8-7-5------------5-5-5-|---5-5--8-7-5------------5-5-5-------|
D|5-5--8-7-5---5-5-5-5--3-3-3-|---5-5--8-7-5---5-5-5-5--3-3-3-------|
A|3-3----------3-3-3-3--------|---3-3----------3-3-3-3--------------|
E|----------------------------|-------------------------------------|
                                                                                      
let ring
E|------------|------------------------------|-------------------------------------------|
B|------------|------------------------------|-------------------------------------------|
G|-3----5-5-5-|-5-5--8-7-5------------5-5-5--|------8--------8--------8--------8-8-8--5--|
D|-3----3-3-3-|-5-5--8-7-5---5-5-5-5--3-3-3--|-5----8--8-8---8--8-8---8--8-----8-8-8--5--|
A|-1----------|-3-3----------3-3-3-3---------|-5----6--8-8---6--8-8---6--8-----6-6-6--3--|
E|------------|------------------------------|-3-------6-6------6-6------6---------------|


E|-------------------------|-----------------------------------|
B|-------------------------|-----------------------------------|
G|5-5--8-7-5----5-5--8-7-5-|-------8*-7*-5*--------------------|  * = Pitch harmonics
D|5-5--8-7-5----5-5--8-7-5-|--5*-5*-----------5----------------|
A|-------------------------|------------------3--------3*------|
E|-------------------------|---------------------3-6-----3*-6--|
      x----PALM MUTE~~~~~~~x

E|------------------------------------------------------------------|
B|------------------------------------------------------------------|
G|5-5--8-7-5----5-5--8-7-5-----5-5--8-7-5---------------------------|
D|5-5--8-7-5----5-5--8-7-5-----5-5--8-7-5-------5-------------------|
A|-----------6\------------6\--------------6\---3------3-------3----|
E|------------------------------------------------3-6------3-6------|


SOLO (chords):

|:C5  |    |    |
|C5   |    |    |
|G5   |    |C5  |   :|

E|-------------------------------------------|
B|-------------------------------------------|
G|------8--------8--------8--------8-8-8--5--|
D|-5----8--8-8---8--8-8---8--8-----8-8-8--5--|
A|-5----6--8-8---6--8-8---6--8-----6-6-6--3--|
E|-3-------6-6------6-6------6---------------|


VERSE:

E|------------------------------------------------------------------|
B|------------------------------------------------------------------|
G|5-5--8-7-5----5-5--8-7-5-----5-5--8-7-5---------------------------| X2
D|5-5--8-7-5----5-5--8-7-5-----5-5--8-7-5-------5-------------------|
A|3-3--------6\-3-3--------6\--3-3---------6\---3------3-------3----|
E|------------------------------------------------3-6------3-6------|

E|------------------------------------|
B|------------------------------------|
G|3--------------5--8-7-5----5--8-7-5-|X2
D|3-1-2-3--------5--8-7-5----5--8-7-5-|
A|1-------1-2-3-----------6\----------|
E|------------------------------------|

E|-------------------------------------------|
B|-------------------------------------------|
G|------8--------8--------8--------8-8-8--5--|
D|-5----8--8-8---8--8-8---8--8-----8-8-8--5--|
A|-5----6--8-8---6--8-8---6--8-----6-6-6--3--|
E|-3-------6-6------6-6------6---------------|

CHORUS: (repeat two times)

E|----------------------------|-------------------------------------|
B|----------------------------|-------------------------------------|
G|5-5--8-7-5------------5-5-5-|---5-5--8-7-5------------5-5-5-------|
D|5-5--8-7-5---5-5-5-5--3-3-3-|---5-5--8-7-5---5-5-5-5--3-3-3-------|
A|3-3----------3-3-3-3--------|---3-3----------3-3-3-3--------------|
E|----------------------------|-------------------------------------|

E|------------|------------------------------|
B|------------|------------------------------|
G|-3----5-5-5-|-5-5--8-7-5------------5-5-5--|
D|-3----3-3-3-|-5-5--8-7-5---5-5-5-5--3-3-3--|
A|-1----------|-3-3----------3-3-3-3---------|
E|------------|------------------------------|

E|----------------------------|-------------------------------------|
B|----------------------------|-------------------------------------|
G|5-5--8-7-5------------5-5-5-|---5-5--8-7-5------------5-5-5-------|
D|5-5--8-7-5---5-5-5-5--3-3-3-|---5-5--8-7-5---5-5-5-5--3-3-3-------|
A|3-3----------3-3-3-3--------|---3-3----------3-3-3-3--------------|
E|----------------------------|-------------------------------------|

FIRST TIME PLAY THIS:
E|------------|------------------------------|-------------------------------------------|
B|------------|------------------------------|-------------------------------------------|
G|-3----5-5-5-|-5-5--8-7-5------------5-5-5--|------8--------8--------8--------8-8-8--5--|
D|-3----3-3-3-|-5-5--8-7-5---5-5-5-5--3-3-3--|-5----8--8-8---8--8-8---8--8-----8-8-8--5--|
A|-1----------|-3-3----------3-3-3-3---------|-5----6--8-8---6--8-8---6--8-----6-6-6--3--|
E|------------|------------------------------|-3-------6-6------6-6------6---------------|

SECOND TIME PLAY THIS:
E|----------------------------|-------------------------------------|
B|----------------------------|-------------------------------------|
G|5-5--8-7-5------------5-5-5-|---5-5--8-7-5------------5-5-5-------|    (fade out)
D|5-5--8-7-5---5-5-5-5--3-3-3-|---5-5--8-7-5---5-5-5-5--3-3-3-------|
A|3-3----------3-3-3-3--------|---3-3----------3-3-3-3--------------|
E|----------------------------|-------------------------------------|

INTRO
VERSE
CHORUS
SOLO
VERSE
CHORUS
Tap to rate this tab
# A B C D E F G H I J K L M N O P Q R S T U V W X Y Z