Pegasus Bridge - Like Dogs tab

My first Tab. Not sure if it's 100% correct. Tabbed by ear. 
Great Song. 
On the 12-14-11 on the G string, Slide it.
Also on the 12-14-16 tap the 14, if ya know what i mean?:L

e-----------------------------------------------|
A-----------------------------------------------|
D---12-14-16---9------12-14-16------------------|
G-------------------------------12-14-11--------|    X1
B-----------------------------------------------|
E-----------------------------------------------|

e-----------------------------------------------|
A-----------------------------------------------|
D---12-14-16---7-----12-14-16-------------------|   X1 
G-------------------------------12-14-11--------|    
B-----------------------------------------------|
E-----------------------------------------------|

e-----------------------------------------------|
A-----------------------------------------------|
D---12-14-16---9------12-14-16------------------|
G-------------------------------12-14-11--------|    X1
B-----------------------------------------------|
E-----------------------------------------------|

e-----------------------------------------------|
A-----------------------------------------------|
D---12-14-16---7-----12-14-16-------------------|   X1 
G-------------------------------12-14-11--------|    
B-----------------------------------------------|
E-----------------------------------------------|

Tap to rate this tab
 
# A B C D E F G H I J K L M N O P Q R S T U V W X Y Z