Song name
# A B C D E F G H I J K L M N O P Q R S T U V W X Y Z

Pegasus Bridge - Like Dogs tab

Standard tuning, done by ear and only my first tab so sorry if anything is wrong, please 
feel free to improve or correct anything. Thanks

e/ -----------------------------------------------------------------------|
B/ -----------------------------------------------------------------------|
G/ -----------------------------------------------------------------------|
D/ --12-h14-h16---14---12---------------12-h14-h16---14/19----16----------|
A/ -------------------------14--------------------------------------------|
E/ -----------------------------------------------------------------------|

e/ -----------------------------------------------------------------------|
B/ -----------------------------------------------------------------------|
G/ -----------------------------------------------------------------------|
D/ --12-h14-h16---14---12---------------12-h14-h16---14/19----16----------|
A/ -------------------------12--------------------------------------------|
E/ -----------------------------------------------------------------------|

e/ -----------------------------------------------------------------------|
B/ -----------------------------------------------------------------------|
G/ -----------------------------------------------------------------------|
D/ --12-h14-h16---14---12---------------12-h14-h16---14/19----16----------|
A/ -------------------------14--------------------------------------------|
E/ -----------------------------------------------------------------------|

e/ ------------------------------------------------------------------------|
B/ ------------------------------------------------------------------------|
G/ ------------------------------------------------------------------------|
D/ --12-h14-h16---14---12---------------12-h14-h16---14/19----16-----16-12-|
A/ -------------------------14---------------------------------------------|
E/ ------------------------------------------------------------------------|


h - hammer on
/ - slide
Tap to rate this tab
 
# A B C D E F G H I J K L M N O P Q R S T U V W X Y Z