Song name
# A B C D E F G H I J K L M N O P Q R S T U V W X Y Z

Pegasus Bridge - Yoko Acoustic tab

This is from the Burburry Acoustic and what I tabbed is the lead guitar and not the Ukulele
(actually you use a capo on the 4th fret but i think its unnecessary 'cause if
 you can play the first part you can also play the secound and the part where
 he's playing more strings you mustn't use the capo)

Intro
e|--6--9--6--9--6--9--6--9--6-x2--4--6--4--6--4--6--4--6--4--x2--------------|
B|---------------------------------------------------------------------------|
G|---------------------------------------------------------------------------|
D|---------------------------------------------------------------------------|
A|---------------------------------------------------------------------------|
E|---------------------------------------------------------------------------|

Vers 1/2 (both were played at the same way)

e|--6--9--6--9--6--9--6--9--6-x2--4--6--4--6--4--6--4--6--4--x2--------------|
B|---------------------------------------------------------------------------|
G|---------------------------------------------------------------------------|
D|---------------------------------------------------------------------------|
A|---------------------------------------------------------------------------|
E|---------------------------------------------------------------------------|
1.)You play,                      Yoko
   what I say                     oh no
2.)Jono                           cause Yoko
   he went solo                   said oh no no no
Bridge
e|----------------5-5---------------5-5--------------------------------------|
B|---------------6---6-------------6---6-------------------------------------|
G|--------------7-----------------7------------------------------------------|
D|-------------8-------------------------------------------------------------|
A|---------------------------------------------------------------------------|
E|---------------------------------------------------------------------------|
    And we fly          to Tokyo
    to say bye          to Yoko
Chorus
e|--6--9--6--9--6--9--6--9--6-x2-------4--6--4--6--4--6--4--6--4--x2---------|
B|---------------------------------------------------------------------------|
G|---------------------------------------------------------------------------|
D|---------------------------------------------------------------------------|
A|---------------------------------------------------------------------------|
E|---------------------------------------------------------------------------|
  And she gets jalios when I'm away |  Yoko
  I've got nothing else left so say | Oh no

In Chorus and Vers 1 and 2 the lyrics goes on top and bottom e.g:

You play            means : You play what I say
what I say

I did it on this way because if he's singing You play you should play a moment longer 
hope you understand what I did...
and enjoy ;)
Tap to rate this tab
 
# A B C D E F G H I J K L M N O P Q R S T U V W X Y Z