Song name
# A B C D E F G H I J K L M N O P Q R S T U V W X Y Z

Pegasus Bridge - Boa tab

Capo on 2nd fret,figure out strumming for chorus yourself. Enjoy and comment if you please

Verse 1
E ---------------------------------------|x8
B ---------------------------------------|
G ---------------------------------------|
D -------6----------4--------------------|      
A -----4---6--4h6--6-6-------------------|
E -4/6------------4----4-----------------|

Chorus
E -0-----0----0----0---------------------|
B -0-----0----0----0---------------------|
G -8----10----11---11--------------------|
D -9----11----11---11--------------------|      
A -9----11----X----9---------------------|
E -7-----9----11---9---------------------|
end on

E -0----|
B -0----|
G -8----|
D -9----|    
A -9----|
E -7----|

Verse 2

E ---------------------------------------|
B ---------------------------------------|
G ---------------------------------------|
D -------6----------4--------------------|      
A -----4---6--4h6--6-6-------------------|
E -4/6------------4----4-----------------|

E ------------------------------0---0--x--x--|
B ------------------------------0---0--x--x--|
G ------------------------------4---6--6--6--|
D -------6----------------------4---6--4--4--|      
A -----4---6--4h6--8-6--4-------0---4--x--6--|
E -4/6--------------------6--4--0---0--6--x--|
play this when he say" i feel the wieght of my... i'll be gone

Chorus

Bridge
E -0----|
B -0----|
G -8----|
D -9----|    
A -9----|
E -7----|

End with Chorus
Tap to rate this tab
 
# A B C D E F G H I J K L M N O P Q R S T U V W X Y Z