Song name
# A B C D E F G H I J K L M N O P Q R S T U V W X Y Z

Pegasus Bridge - Yoko tab

Thats the Intro and the Chorus, but in the Chorus, it changes to an 7/8. Listen for the timing.


e|-7-10-7-10-7-10-7-10-7-7-10-7-10-7-10-7-10-7--------|
B|-8-8--8-8--8-8--8-8--8-7-7--7-7--7-7--7-7--7--------|
G|----------------------------------------------------|
D|----------------------------------------------------|
A|----------------------------------------------------|
E|----------------------------------------------------|


e|-5-7-5-7-5-7-5-7-5-5-7-5-7-5-7-5-7-5----------------|
B|-5-5-5-5-5-5-5-5-5-7-7-7-7-7-7-7-7-7----------------|
G|----------------------------------------------------|
D|----------------------------------------------------|
A|----------------------------------------------------|
E|----------------------------------------------------|

God Bless!
Wagh_Rules
Tap to rate this tab
 
# A B C D E F G H I J K L M N O P Q R S T U V W X Y Z