Song name
# A B C D E F G H I J K L M N O P Q R S T U V W X Y Z

Pegasus Bridge - Ribena tab

I don't take credit for this its copied form their Facebook page
so it will be 100%. I just go annoyed with all the wrong ones out
there so tabbed it up!

INTRO Riff x4
E|-0-0--0-0-0-0-0-|
B|-8-12-7-3-5-5-5-|
G|-0-0--0-0-0-0-0-|
D|-0-0--0-0-0-0-0-|
A|-7-10-5-2-3-3-3-|
E|-X-X--X-X-X-X-X-|

VERSE - Stabbed, on clean x4
E|-7-7-7-|
B|-5-5-5-|
G|-0-0-0-| then repeat into when "so I'll dig"
D|-0-0-0-|
A|-3-3-3-|
E|-x-x-x

CHORUS x2
E|-7-7-7-7-7-7-7-7-0-0-0-0-0--0--0--0--|
B|-5-5-5-5-7-7-7-7-8-8-8-8-10-10-10-10-|
G|-0-0-0-0-0-0-0-0-0-0-0-0-0--0--0--0--|
D|-0-0-0-0-0-0-0-0-0-0-0-0-0--0--0--0--|
A|-3-3-3-3-5-5-5-5-7-7-7-7-9--9--9--9--|
E|-x-x-x-x-x-x-x-x-x-x-x-x-x--x--x--x--|

RIFF x2
VERSE 2 (same as verse 1)
CHORUS 2 (same as chorus 1)

MID SECTION x4
E|-0-0-0----0--0--0----0-0-0----0-0-0----0-|
B|-8-8-8----12-12-12---7-7-7----3-3-3----5-|
G|-0-0-0----0--0--0----0-0-0----0-0-0----0-|
D|-0-0-0----0--0--0----0-0-0----0-0-0----0-|
A|-7-7-7----10-10-10---5-5-5----2-2-2----3-|
E|-0-0-0----x--x--x----x-x-x----x-x-x----x-|

QUIET - same as chorus, just on clean
LAST CHORUS - same as all the other choruses, predictably

END RIFF
E|-0-0-0----0--0--0----0-0--0-0-|
B|-8-8-8----12-12-12---8-12-7-3-|
G|-0-0-0----0--0--0----0-0--0-0-|
D|-0-0-0----0--0--0----0-0--0-0-|
A|-7-7-7----10-10-10---7-10-5-2-|
E|-0-0-0----x--x--x----x-x--x-x-|

END
Tap to rate this tab
 
# A B C D E F G H I J K L M N O P Q R S T U V W X Y Z