Song name
# A B C D E F G H I J K L M N O P Q R S T U V W X Y Z

Peggy Lee - Johnny Guitar tab

INTRO

e-----------------------------------|---0--------------------0---1------|
B-------------------0---0---1---1---|--------------------3--------------|
G-----------2---2-------------------|-----------------------------------|
D-----------------------------------|-----------------------------------|
A-----------------------------------|-----------------------------------|
E-----------------------------------|-----------------------------------|

e---3--------------------1---1---3--|---1----------0--------------------|
B-----------------------------------|-----------------------------------|
G-----------------------------------|-----------------------------------|
D-----------------------------------|-----------------------------------|
A-----------------------------------|-----------------------------------|
E-----------------------------------|-----------------------------------|

e-----------------------------------|---0--------------------0---1------|
B-------------------0---0---1---1---|--------------------3--------------|
G-----------2---2-------------------|-----------------------------------|
D-----------------------------------|-----------------------------------|
A-----------------------------------|-----------------------------------|
E-----------------------------------|-----------------------------------|

e---5------------------------3------|---0-------------------------------|
B-----------------------------------|-----------------------------------|
G-----------------------------------|-----------------------------------|
D-----------------------------------|-----------------------------------|
A-----------------------------------|-----------------------------------|
E-----------------------------------|-----------------------------------|

e------------------------0---5---7--|---8----------------8---7---5------|
B-----------------------------------|-----------------------------------|
G-----------------------------------|-----------------------------------|
D-----------------------------------|-----------------------------------|
A-----------------------------------|-----------------------------------|
E-----------------------------------|-----------------------------------|

e---8--------------------8---7---5--|---8------0------------------------|
B-----------------------------------|-----------------------------------|
G-----------------------------------|-----------------------------------|
D-----------------------------------|-----------------------------------|
A-----------------------------------|-----------------------------------|
E-----------------------------------|-----------------------------------|

e------------------------8---7---5--|---8----------------8---7---5------|
B-----------------------------------|-----------------------------------|
G-----------------------------------|-----------------------------------|
D-----------------------------------|-----------------------------------|
A-----------------------------------|-----------------------------------|
E-----------------------------------|-----------------------------------|

e------------------------7---5---4--|---5--------------5---5---7---5----|
B-----------------------------------|-----------------------------------|
G-----------------------------------|-----------------------------------|
D-----------------------------------|-----------------------------------|
A-----------------------------------|-----------------------------------|
E-----------------------------------|-----------------------------------|

e---3--------------------3---5---3--|---1----------------3--5--3---1----|
B-----------------------------------|-----------------------------------|
G-----------------------------------|-----------------------------------|
D-----------------------------------|-----------------------------------|
A-----------------------------------|-----------------------------------|
E-----------------------------------|-----------------------------------|


e---0------------------------12-----|---5-------------------------------|
B-----------------------------------|---------------------------1---1---|
G-----------------------------------|-----------2---2---4---4-----------|
D-----------------------------------|-----------------------------------|
A-----------------------------------|-----------------------------------|
E-----------------------------------|-----------------------------------|


VERSE

e---0------------------------0---1--|---3----------------1---1---3------|
B------------------------3----------|-----------------------------------|
G-----------------------------------|-----------------------------------|
D-----------------------------------|-----------------------------------|
A-----------------------------------|-----------------------------------|
E-----------------------------------|-----------------------------------|

e---1-----------0-------------------|-----------------------------------|
B-----------------------------------|-------------------0---0---1---1---|
G-----------------------------------|-----------2---2-------------------|
D-----------------------------------|-----------------------------------|
A-----------------------------------|-----------------------------------|
E-----------------------------------|-----------------------------------|

e---0------------------------0---1--|---5--------------------3----------|
B------------------------3----------|-----------------------------------|
G-----------------------------------|-----------------------------------|
D-----------------------------------|-----------------------------------|
A-----------------------------------|-----------------------------------|
E-----------------------------------|-----------------------------------|

e---0------------------------0---1--|---5------------------------3------|
B------------------------3----------|-----------------------------------|
G-----------------------------------|-----------------------------------|
D-----------------------------------|-----------------------------------|
A-----------------------------------|-----------------------------------|
E-----------------------------------|-----------------------------------|

e---0-------------------------------|----------------------0---5---7----|
B-----------------------------------|-----------------------------------|
G-----------------------------------|-----------------------------------|
D-----------------------------------|-----------------------------------|
A-----------------------------------|-----------------------------------|
E-----------------------------------|-----------------------------------|

e---8--------------------8---7---5--|---8------------------8---7---5----|
B-----------------------------------|-----------------------------------|
G-----------------------------------|-----------------------------------|
D-----------------------------------|-----------------------------------|
A-----------------------------------|-----------------------------------|
E-----------------------------------|-----------------------------------|

e---7----------------0--------------|----------------------8---7---5----|
B-----------------------------------|-----------------------------------|
G-----------------------------------|-----------------------------------|
D-----------------------------------|-----------------------------------|
A-----------------------------------|-----------------------------------|
E-----------------------------------|-----------------------------------|

e---8--------------------8---7---5--|---7------------------7---5---4----|
B-----------------------------------|-----------------------------------|
G-----------------------------------|-----------------------------------|
D-----------------------------------|-----------------------------------|
A-----------------------------------|-----------------------------------|
E-----------------------------------|-----------------------------------|

e---5----------------5--5--7---5----|---3----------------3--3--5---3----|
B-----------------------------------|-----------------------------------|
G-----------------------------------|-----------------------------------|
D-----------------------------------|-----------------------------------|
A-----------------------------------|-----------------------------------|
E-----------------------------------|-----------------------------------|

e---1----------------0--1--3---1----|---0-------------------------------|
B-----------------------------------|-----------------------------------|
G-----------------------------------|-----------------------------------|
D-----------------------------------|-----------------------------------|
A-----------------------------------|-----------------------------------|
E-----------------------------------|-----------------------------------|


BRIDGE

e-----------------------------------|----12-----------------10--12--13--|
B------------10--10--12--12--13--13-|-----------------------------------|
G-----------------------------------|-----------------------------------|
D-----------------------------------|-----------------------------------|
A-----------------------------------|-----------------------------------|
E-----------------------------------|-----------------------------------|

e----15---------------13-13-13--15--|----13------------12--12-----------|
B-----------------------------------|-----------------------------------|
G-----------------------------------|-----------------------------------|
D-----------------------------------|-----------------------------------|
A-----------------------------------|-----------------------------------|
E-----------------------------------|-----------------------------------|

e-----------------------------------|----12-----------------10--12--13--|
B------------10--10--12--12--13--13-|-----------------------------------|
G-----------------------------------|-----------------------------------|
D-----------------------------------|-----------------------------------|
A-----------------------------------|-----------------------------------|
E-----------------------------------|-----------------------------------|

e---17-----------------------15-----|-----------------------------------|
B-----------------------------------|----17-----------------------------|
G-----------------------------------|-----------------------------------|
D-----------------------------------|-----------------------------------|
A-----------------------------------|-----------------------------------|
E-----------------------------------|-----------------------------------|


ACKORDPLOCK

e-----------------5-----------------|--------------5---7---5-------5----|
B-------------5-------5-------5-----|----------6---------------6--------|
G---------5---------------5---------|------7----------------------------|
D-----7-----------------------------|-----------------------------------|
A-----------------------------------|-----------------------------------|
E-----------------------------------|-----------------------------------|

e---------------5---7---5-------5---|-------------------5---------------|
B-----------6---------------6-------|---------------5-------5-------5---|
G-------7---------------------------|-----------5---------------5-------|
D-----------------------------------|-------7---------------------------|
A-----------------------------------|-----------------------------------|
E-----------------------------------|-----------------------------------|

e---------------5---7---5-------5---|---------------1---5---1-----------|
B-----------5---------------5-------|-----------1---------------1-------|
G-------5---------------------------|-------2-----------------------2---|
D-----------------------------------|-----------------------------------|
A-----------------------------------|-----------------------------------|
E-----------------------------------|-----------------------------------|

e---------------0---4---0-----------|-------------0---5---0-------------|
B-----------0---------------3---0---|---------1-------------------------|
G-------1---------------------------|-----2-------------------5---2-----|
D-----------------------------------|-----------------------------------|
A-----------------------------------|-----------------------------------|
E-----------------------------------|-----------------------------------|

e------------------3----------------|------------------1----------------|
B----------0---3-------3---0--------|--------------1-------1------------|
G------0-----------------------0----|----------2---------------2--------|
D-----------------------------------|------3-----------------------3/2--|
A-----------------------------------|-----------------------------------|
E-----------------------------------|-----------------------------------|


VERSE 2

e-----------------------------------|---0---------------------0---1-----|
B---------------------------1---1---|---------------------3-------------|
G-----------2---2---4---4-----------|-----------------------------------|
D-----------------------------------|-----------------------------------|
A-----------------------------------|-----------------------------------|
E-----------------------------------|-----------------------------------|

e---3-------------------1---1---3---|----1-----------0------------------|
B-----------------------------------|-----------------------------------|
G-----------------------------------|-----------------------------------|
D-----------------------------------|-----------------------------------|
A-----------------------------------|-----------------------------------|
E-----------------------------------|-----------------------------------|

e-----------------------------------|---0---------------------0---1-----|
B--------------------0---0---1---1--|---------------------3-------------|
G------------2---2------------------|-----------------------------------|
D-----------------------------------|-----------------------------------|
A-----------------------------------|-----------------------------------|
E-----------------------------------|-----------------------------------|

e---5----------------------3--------|----0------------------------------|
B-----------------------------------|-----------------------------------|
G-----------------------------------|-----------------------------------|
D-----------------------------------|-----------------------------------|
A-----------------------------------|-----------------------------------|
E-----------------------------------|-----------------------------------|

e-----------------------0---5---7---|----8------------------8---7---5---|
B-----------------------------------|-----------------------------------|
G-----------------------------------|-----------------------------------|
D-----------------------------------|-----------------------------------|
A-----------------------------------|-----------------------------------|
E-----------------------------------|-----------------------------------|

e----8------------------8---7---5---|---7-------------0-----------------|
B-----------------------------------|-----------------------------------|
G-----------------------------------|-----------------------------------|
D-----------------------------------|-----------------------------------|
A-----------------------------------|-----------------------------------|
E-----------------------------------|-----------------------------------|

e-----------------------8---7---5---|----8------------------8---7---5---|
B-----------------------------------|-----------------------------------|
G-----------------------------------|-----------------------------------|
D-----------------------------------|-----------------------------------|
A-----------------------------------|-----------------------------------|
E-----------------------------------|-----------------------------------|

e----7------------------7---5---4---|-----5-----------------------------|
B-----------------------------------|-----------------------------------|
G-----------------------------------|-----------------------------------|
D-----------------------------------|-----------------------------------|
A-----------------------------------|-----------------------------------|
E-----------------------------------|-----------------------------------|


OUTRO

e-----------------------8---7---5---|----8------------------8---7---5---|
B-----------------------------------|-----------------------------------|
G-----------------------------------|-----------------------------------|
D-----------------------------------|-----------------------------------|
A-----------------------------------|-----------------------------------|
E-----------------------------------|-----------------------------------|

e----7------------------7---5---4---|-----5-----------------------------|
B-----------------------------------|-----------------------------------|
G-----------------------------------|-----------------------------------|
D-----------------------------------|-----------------------------------|
A-----------------------------------|-----------------------------------|
E-----------------------------------|-----------------------------------|

e-----------------------8---7---5---|----8------------------8---7---5---|
B-----------------------------------|-----------------------------------|
G-----------------------------------|-----------------------------------|
D-----------------------------------|-----------------------------------|
A-----------------------------------|-----------------------------------|
E-----------------------------------|-----------------------------------|

e----7------------------7---5---4---|-----5-----------------------------|
B-----------------------------------|---------------------5-------------|
G-----------------------------------|----------------------------5------|
D-----------------------------------|-----------------------------------|
A-----------------------------------|-----------------------------------|
E-----------------------------------|-----------------------------------|

e-----------------------------------|
B-----------------------------------|
G-----------------------------------|
D-----------------------------------|
A---0-------------------------------|
E-----------------------------------|
Tap to rate this tab
 
# A B C D E F G H I J K L M N O P Q R S T U V W X Y Z