Song name
# A B C D E F G H I J K L M N O P Q R S T U V W X Y Z

Peggy Sue - The Ballad Of Superman tab

Peggy Sue – The Ballad Of Superman

Verses;
e|----0-0-0-0-0--0-0-0-0-|
B|---1-1-1-1-1—-3-3-3-3--|
G|--2-2-2-2-2--4-4-4-4---|
D|-----------------------|
A|-----------------------|
E|-----------------------|

Choruses;
e|--------------------|
B|----3-3-3-3-3-3-3-3-|
G|---4-4-4-4-4-4-4-4--|
D|--5-5-5-5-----------|
A|----------5-5-5-5---|
E|--------------------|

When they go ‘to have the right to wear my pants underneath my tights’ Don’t play 
then carry on into Chorus. There are other breaks as well but you’ll have to listen to the 
to work out where they are.

End; (SHAM!)
e|-----|
B|-----|
G|--4--|Just Strum Once On ‘SHAM!’
D|--5--|
A|-----|
E|-----|

http://peggywho.com/
Tap to rate this tab
# A B C D E F G H I J K L M N O P Q R S T U V W X Y Z