Song name
# A B C D E F G H I J K L M N O P Q R S T U V W X Y Z

Peggy Sue - Escargot tab

Peggy Sue – Escargot

Verses;
e|-----------------------|------------------------------|
B|---1-1-1-1-1-1-1-1-0h1-|-1----------------------------|
G|---0-0-0-0-0-0-0-0-0---|--(Strum when stop in Verse 1)|
D|-----------------------|-2----------------------------|
A|--3-3-3-3-3------------|-3----------------------------|
E|-----------------------|------------------------------|

Chorus;
e|-------------------------------------------|
B|---1-1-1-1-1-1-1-1-1-1-1-1-1-1-1-1-1-1-1-1-|
G|-------------------------------------------|
D|---2-2-2-2-2-2-2-2-2-2-2-2-2-2-2-2-2-2-2-2-|
A|-------------------------------------------|
E|--0-0-0-0-1-1-1-1-0-0-0-0-1-1-1-1-0-0-0-0--|
Then; (When Rosa goes ‘nothing’)
e|--1-1-1-3-3-3-|--8--|
B|--1-1-1-3-3-3-|--8--|
G|--2-2-2-4-4-4-|--9--|<-Do this on second chorus which then 
D|--3-3-3-5-5-5-|--10-|<-leads into bridge.
A|--3-3-3-5-5-5-|--10-|
E|--1-1-1-3-3-3-|--8--| 
Don’t play anything on ‘left’ then do Verse again.

Bridge; (And the crash…)
e|--8--8--4-4-4-4-4-|
B|--8--8--4-4-4-4-4-|
G|--9--9--5-5-5-5-5-|Rhythm changes throughout bridge.
D|--10-10-6-6-6-6-6-|
A|--10-10-6-6-6-6-6-|
E|--8--8--4-4-4-4-4-|

Just use chorus chords at part ‘morning came and the sun it rose…’

End; (‘nowhere to be seen)
e|---------|
B|---1-1-1-|
G|---------|
D|---2-2-2-|
A|-------3-|
E|--0-1----|

http://peggywho.com/
Tap to rate this tab
 
# A B C D E F G H I J K L M N O P Q R S T U V W X Y Z