Song name
# A B C D E F G H I J K L M N O P Q R S T U V W X Y Z

Peggy Sue - Eisenstein tab

Eisenstein  Peggy Sue

Verses/Choruses (Everything);
e|----------------|
B|----1--1--1--1--|
G|---2--2--2--2---|
D|----------------|
A|--3--0----------|
E|--------3--0----|

End;
e|---------x--|
B|----1--1-1--|
G|---------x--|
D|---2--2--2--|
A|--3--3---3--|
E|---------x--|

Basically that all the way through :)

Tap to rate this tab
# A B C D E F G H I J K L M N O P Q R S T U V W X Y Z