Song name
# A B C D E F G H I J K L M N O P Q R S T U V W X Y Z

Peggy Sue - Lazarus tab

Intro/Verse
E|------|------|------|------|------|------|
B|------|------|------|------|------|------|
G|---0--|---2--|---2--|---4--|---7--|---6--|
D|---0--|---0--|---0--|---0--|---0--|---0--|
A|--0---|--0---|--3---|--5---|--0---|--0---|
E|------|------|------|------|------|------|

Breakdown
E|---------------------------|
B|---------------------------|
G|---0--0--2--2--0--0--0--0--|
D|---0--0--0--0--5--0--0--0--|
A|--0--0--0--0--3---5--3--2--|
E|---------------------------| (x3)

E|---------------------------|
B|---------------------------|
G|---0--0--2--2--3--3--3--3--|
D|---0--0--0--0--0--0--0--0--|
A|--0--0--0--0--0--0--0--0---|
E|---------------------------|

(Woooo-ooo…)
E|-----------|
B|-----------|
G|---7----2--|
D|---7---3---|
A|--5---3----|
E|-----------|

(Forgive him, his sins and return him…)
E|--------------|---------------------------|
B|--------------|---------------------------|
G|---7---7h6h7--|---7--7--7--7--7--7--6--6--|
D|--------------|---------------------------|
A|--8-8-7-------|--8--8--8--8--7--7--7--7---|
E|--------------|---------------------------|
                     ^
Good Luck :D         |
Ohh and this part----
Use when you go (Name him Lazarus) I like to start strumming the picky parts when it 
really loud, but it’s up to you :D
Tap to rate this tab
# A B C D E F G H I J K L M N O P Q R S T U V W X Y Z